Log in

One click and you are in

Login with Facebook Login with Google

Why sign up and log in

Guitar Tabs Explorer
Jonah Yano bass tabs for Delicate

Bass tabs

Verse 1:

G|---------------------------------------------------------------------------|
D|---------------------------------------------------------------------------|
A|---------------------------------------------------------------------------|
E|-11---6-8----11---6-8-------1-1-3----1-1-3----6p3-1------------------------| (x2)
G|---------------------------------------------------------------------------|
D|---------------------------------------------------------------------------|
A|---------------------------------------------------------------------------|
E|-11---6-8----11---6-8--6-8--1-1-3----1-1-3----6p3-1------------------------|

G|---------------------------------------------------------------------------|
D|---------------------------------------------------------------------------|
A|---------------------------------------------------------------------------|
E|-11---6-8----11---6-8-------1-1-3----3-------------------------------------|


Chorus:

G|---------------------------------------------------------------------------|
D|---------------------------------------------------------------------------|
A|---------------------------------------------------------------------------|
E|-11---6-8----11---6-8-------3-3-6----3-3-6----8-6--------------------------|


G|---------------------------------------------------------------------------|
D|---------------------------------------------------------------------------|
A|---------------------------------------------------------------------------|
E|-11---6-8----11---6-8-------3-3-6----3-3-6----8-6-/------------------------|


Verse 2:

G|---------------------------------------------------------------------------|
D|---------------------------------------------------------------------------|
A|---------------------------------------------------------------------------|
E|-11---6-8----11---6-8-------1-1-3----6p3-1---1-1-3-------------------------|

G|---------------------------------------------------------------------------|
D|---------------------------------------------------------------------------|
A|---------------------------------------------------------------------------|
E|-11---6-8----11---6-8-------1-1-3----1-1-3----6p3-1------------------------|

G|---------------------------------------------------------------------------|
D|---------------------------------------------------------------------------|
A|-----------------------------5---------------------------------------------|
E|-11---6-8--6-8---11--6-8---6---6-3--1-1-3--6p3-1---1-1-3-------------------|

G|---------------------------------------------------------------------------|
D|---------------------------------------------------------------------------|
A|---------------------------------------------10-12-10----------------------|
E|-11---6-8----11-8-11-13----11--6-8---10-13-10---------10---1-1-3--1-3-3----|

G|---------------------------------------------------------------------------|
D|---------------------------------------------------------------------------|
A|---------------------------------------------------------------------------|
E|-3-5-6-6/13----------------------------------------------------------------|


Chorus:

G|---------------------------------------------------------------------------|
D|---------------------------------------------------------------------------|
A|---------------------------------------------------------------------------|
E|-11---6-8----11---6-8-------3-3-6----3-3-6----3-6h8------------------------|


G|---------------------------------------------------------------------------|
D|---------------------------------------------------------------------------|
A|---------------------------------------------13-11----12/13----------------|
E|-11---6-8----11---6-8-------3-3-6-6--3-3-6---------11----------------------|

G|---------------------------------------------------------------------------|
D|---------------------------------------------------------------------------|
A|---------------------------------------------------------------------------|
E|-11---6-8----11---6-8-------3-3-6----3-3-6----3-6h8------------------------|

G|---------------------------------------------------------------------------|
D|---------------------------------------------------------------------------|
A|---------------------------------------------------------------------------|
E|-11---6-8----11---6-8-------3-3-6-6\----------------------------------------|

************************************

| h  Hammer-on
| p  Pull-off
| /  Slide up
| \  Slide down

************************************

Almost there ...

Sign in to get your own page with links to favourite songs and more. You are just one click away...

Login with Facebook Login with Google