Log in

One click and you are in

Login with Facebook Login with Google

Why sign up and log in

Guitar Tabs Explorer
Joji bass tabs for Run

Bass tabs with lyrics

Tuning: Standard (E A D G)

The bass doesn't happen till the chorus starts


Chorus:

I know you're not in love, like you used to be

Guess I’m not the one, like you used to think

So you just
G|------------------------------------------------------|
D|------------------------------------------------------|
A|-3-2-0----0-0-0-0-0-0-0-0-0-3-2-0---0-0-0-0-0-0-0-0-0-|
E|-------3--------------------------3-------------------|
run
G|--------------------------------------|
D|--------------------------------------|
A|--------------------------------------|
E|-0-0-0-0-0-0-2-2-2-2-2-2--3-3-3-3-3-3-|
I know that I'm stuck, in this misery

I know that I'm stuck, in this misery
Guess I'm not enough, like you used to think
So I'll just
G|------------------------------------------------------|
D|------------------------------------------------------|
A|-3-2-0----0-0-0-0-0-0-0-0-0-3-2-0---0-0-0-0-0-0-0-0-0-|
E|-------3--------------------------3-------------------|
run
G|---------------------------------------------|
D|---------------------------------------------|
A|-------------------------------------3-2-0---|
E|-0-0-0-0-0-0-2-2-2-2-2-2-3-3-3-3-3-3-------3-|

Verse 2:

You bathe in your victory.. You blew out all my fumes
G|---------------------------------------------------------------------------|
D|---------------------------------------------------------------------------|
A|-0-----------------3-2-0---0-----------------------------------------------|
E|-------------------------3-------------------------------------------------|
And if I took on the planet... Will I pay my dues?
G|---------------------------------------------------------------------------|
D|---------------------------------------------------------------------------|
A|-------------------------------------3-2-0---------------------------------|
E|-0-----------2-----------3-----------------3-------------------------------|
Your love was a mystery.. Yeah, my love is a fool
G|---------------------------------------------------------------------------|
D|---------------------------------------------------------------------------|
A|-0-----------------3-2-0---0-----------------------------------------------|
E|-------------------------3-------------------------------------------------|
And I travel the country just to get to you
G|---------------------------------------------------------------------------|
D|---------------------------------------------------------------------------|
A|---------------------------------------------------------------------------|
E|-0-----------2-----------3-------------------------------------------------|


Chorus:

I know you're not in love, like you used to be

Guess I’m not the one, like you used to think

So you just
G|------------------------------------------------------|
D|------------------------------------------------------|
A|-3-2-0----0-0-0-0-0-0-0-0-0-3-2-0---0-0-0-0-0-0-0-0-0-|
E|-------3--------------------------3-------------------|
run
G|--------------------------------------|
D|--------------------------------------|
A|--------------------------------------|
E|-0-0-0-0-0-0-2-2-2-2-2-2--3-3-3-3-3-3-|

I know that I'm stuck, in this misery
Guess I'm not enough, like you used to think
So I'll just
G|------------------------------------------------------|
D|------------------------------------------------------|
A|-3-2-0----0-0-0-0-0-0-0-0-0-3-2-0---0-0-0-0-0-0-0-0-0-|
E|-------3--------------------------3-------------------|
run
G|---------------------------------------------|
D|---------------------------------------------|
A|-------------------------------------3-2-0---|
E|-0-0-0-0-0-0-2-2-2-2-2-2-3-3-3-3-3-3-------3-|


Outro:
G|---------------------------------------------------------|
D|---------------------------------------------------------|
A|-3-2-0---------------------------------------------------|
E|-------3-0-0-0-0-0-0-2-2-2-2-2-2-3-3-3-3-3-3/5-5-5-5-5-5-|

(x3)
G|-------------------------------------------------|
D|-------------------------------------------------|
A|-------------------------------------------------|
E|-0-0-0-0-0-0-2-2-2-2-2-2-3-3-3-3-3-3/5-5-5-5-5-5-|

G|---------------------------------------------------|
D|---------------------------------------------------|
A|-------------------------------------------3-2-0---|
E|-0-0-0-0-0-0-2-2-2-2-2-2-3-3-3-3-3-3/5-5-5-------3-|

Almost there ...

Sign in to get your own page with links to favourite songs and more. You are just one click away...

Login with Facebook Login with Google