Log in

One click and you are in

Login with Facebook Login with Google

Why sign up and log in

Guitar Tabs Explorer
Elton John bass tabs for Im still standing

Bass tabs

Tuning: Standard (E A D G)

Difficulty: Intermediate
Intro:            (Play This Bit x2)
G|---3---3---3---3---3---3---3---3-|
D|---------------------------------|
A|-1---1---1---1---1---1---1---1---|
E|---------------------------------|


Verse 1:
G|--------------------------------------------------------------------|
D|--------------------------------------------------------------------|
A|-1--1--1--1--1--1--1--1---1--1--1--1--1--1--1--1---1--1--1--1--1--1-|
E|--------------------------------------------------------------------|

G|-----------------------------------------------------|
D|--------------------1--1--1--1-----------------------|
A|-------------------------------1--1--1--1---1--1-0---|
E|-1--1---3--3--3--3---------------------------------4-|


Verse 2:
G|--------------------------------------------------------------------|
D|--------------------------------------------------------------------|
A|-1--1--1--1--1--1--1--1---1--1--1--1--1--1--1--1---1--1--1--1--1--1-|
E|--------------------------------------------------------------------|

G|-----------------------------------------------------|
D|--------------------1--1--1--1-----------------------|
A|-------------------------------1--1--1--1---1--1-0---|
E|-1--1---3--3--3--3---------------------------------4-|

Chorus:
G|----------------------------------------------------------------------|
D|-----------8--8--8--8-------------------------------------------------|
A|---------8------------8--8--8--8--8--8--8--8---6--6--6--6--6--6--6--6-|
E|-6--6--6--------------------------------------------------------------|

G|---------------------------------------------------------------------|
D|-------------6--6--6--6------------8--8--8--8------------------------|
A|-9--9--9--9----------------------8------------8--8--8--8--8--8--8--8-|
E|-------------------------6--6--6-------------------------------------|

G|-----------------------------------------------------------------------|
D|-----------------------------------------------------------------------|
A|-6--6--6--6--6--6--6--6---8--8--8--8--8--8--8--8------------6--6--6--6-|
E|-------------------------------------------------6--6--6--6------------|

G|---------------------------------------------------------------------|
D|----------------------------------------------3--3--3--3--3--3--3--3-|
A|-8--8--8--8--8--8--8--8------------6--6--6--6------------------------|
E|------------------------6--6--6--6-----------------------------------|


Verse 3:
G|--------------------------------------------------------------------|
D|--------------------------------------------------------------------|
A|-1--1--1--1--1--1--1--1---1--1--1--1--1--1--1--1---1--1--1--1--1--1-|
E|--------------------------------------------------------------------|

G|-----------------------------------------------------|
D|--------------------1--1--1--1-----------------------|
A|-------------------------------1--1--1--1---1--1-0---|
E|-1--1---3--3--3--3---------------------------------4-|


Chorus:
G|----------------------------------------------------------------------|
D|-----------8--8--8--8-------------------------------------------------|
A|---------8------------8--8--8--8--8--8--8--8---6--6--6--6--6--6--6--6-|
E|-6--6--6--------------------------------------------------------------|

G|---------------------------------------------------------------------|
D|-------------6--6--6--6------------8--8--8--8------------------------|
A|-9--9--9--9----------------------8------------8--8--8--8--8--8--8--8-|
E|-------------------------6--6--6-------------------------------------|

G|-----------------------------------------------------------------------|
D|-----------------------------------------------------------------------|
A|-6--6--6--6--6--6--6--6---8--8--8--8--8--8--8--8------------6--6--6--6-|
E|-------------------------------------------------6--6--6--6------------|

G|---------------------------------------------------------------------|
D|----------------------------------------------3--3--3--3--3--3--3--3-|
A|-8--8--8--8--8--8--8--8------------6--6--6--6------------------------|
E|------------------------6--6--6--6-----------------------------------|

Interlude:
G|--------------------------------------------------------------------|
D|--------------------------------------------------------------------|
A|-1--1--1--1--1--1--1--1---1--1--1--1--1--1--1--1---1--1--1--1--1--1-|
E|--------------------------------------------------------------------|

G|-----------------------------------------------------|
D|--------------------1--1--1--1-----------------------|
A|-------------------------------1--1--1--1---1--1-0---|
E|-1--1---3--3--3--3---------------------------------4-|


Chorus:
G|----------------------------------------------------------------------|
D|-----------8--8--8--8-------------------------------------------------|
A|---------8------------8--8--8--8--8--8--8--8---6--6--6--6--6--6--6--6-|
E|-6--6--6--------------------------------------------------------------|

G|---------------------------------------------------------------------|
D|-------------6--6--6--6------------8--8--8--8------------------------|
A|-9--9--9--9----------------------8------------8--8--8--8--8--8--8--8-|
E|-------------------------6--6--6-------------------------------------|

G|-----------------------------------------------------------------------|
D|-----------------------------------------------------------------------|
A|-6--6--6--6--6--6--6--6---8--8--8--8--8--8--8--8------------6--6--6--6-|
E|-------------------------------------------------6--6--6--6------------|

G|-----------------------------------------------------------------------|
D|-----------------------------------------------------------------------|
A|-8--8--8--8--8--8--8--8------------6--6--6--6---8--8--8--8--8--8--8--8-|
E|------------------------6--6--6--6-------------------------------------|


Outro:  (Repeat Outro to Fade/End)
G|------------------------------------------------|
D|------------------------------------------------|
A|------------6--6--6--6---8--8--8--8--8--8--8--8-|
E|-6--6--6--6-------------------------------------|

Almost there ...

Sign in to get your own page with links to favourite songs and more. You are just one click away...

Login with Facebook Login with Google