Don't Let The Sun Go Down On Me by Elton John

Don't Let The Sun Go Down On Me tab by Elton John

Guitar tabs

There is a lot of tasty melodic accompaniment in this
song. Here's one:

...and see the way I feel

---------------------------------------------------
--------5-----5-----5------------------------------
----------0-----0-----0----------------------------
---3/5------5-----5------3------------------------
---------------------------------------------------
---------------------------------------------------

---------------------------------------------------
---3---1-----0------1-----1--------3~--------------
-----0---0-----0------0-----0----------------------
-----------2-----2------2-----3--------------------
---------------------------------------------------
---------------------------------------------------
Note:      ^here I might play the open D

Other versions of Don't Let The Sun Go Down On Me

Alternative guitar chords and tabs for Don't Let The Sun Go Down On Me by Elton John

Find guitar tabs and chords

A B C D E F G H I J K L M N O P Q R S T U V W X Y Z #