Crocodile Rock by Elton John

Crocodile Rock bass tab by Elton John

Bass tabs

Crocodile Rock.btab
Elton John
TablEdited by Poppamies
Tuning : E A D G 	Time Signature: 4/4

 tempo 150    |    |    |    |    |    |
|--------------------------------|--------------------------------|
|------------------nine bar intro without bass--------------------|
|--------------------------------|--------------------------------|
|--------------------------------|--------------------------------|

 |    |    |    |    |    |    |    |
|--------------------------------|------------------------0-------|
|--------------------------------|----------------0---2-------2---|
|--------------------------------|--------------------------------|
|--------------------------------|--------------------------------|

 |    |    |    |    |    |    |    |
|0---0-----------------------0---|----0---------------------------|
|--------2-------0-------2-------|--------2-------0-------2-------|
|--------------------------------|----------------------------0---|
|--------------------------------|--------------------------------|

 |    |    |    |    |    |    |    |
|--------------------------------|--------------------------------|
|--------------------------------|--------------------------------|
|2---2-----------2-----------2---|----2-----------2-------2---0---|
|--------2---------------2-------|--------2-----------------------|

 |    |    |    |    |    |    |    |
|--------------------------------|--------------------------------|
|--------------------------------|--------------------------------|
|3---3---0---------------0---3---|----3---0-----0---------0---3---|
|----------------3---------------|----------------3---3-----------|

 |    |    |    |    |    |    |    |
|--------------------------------|------------------------0-------|
|0---0-----------0-----------0---|----0-----------0---2-------2---|
|--------0---------------0-------|--------0-----0-----------------|
|--------------------------------|--------------------------------|

 |    |    |    |    |    |    |    |
|0---0-----------------------0---|----0---------------------------|
|--------2-------0-------2-------|--------2-----2-0---0---2-------|
|--------------------------------|----------------------------0---|
|--------------------------------|--------------------------------|

 |    |    |    |    |    |    |    |
|--------------------------------|--------------------------------|
|--------------------------------|--------------------------------|
|2---2-----------2-----------2---|----2-----------2---2---0---2---|
|--------2---------------2-------|--------2-----2-----------------|

 |    |    |    |    |    |    |    |
|--------------------------------|--------------------------------|
|--------------------------------|--------------------------------|
|3---3---0---------------0---3---|----3---0-----0---------0---3---|
|----------------3---------------|----------------0---3-----------|

 |    |    |    |    |    |    |    |
|--------------------------------|--------------------------------|
|0---0-----------0-----------0---|----0-----------0-------0---1---|
|--------0---------------0-------|--------0-----------------------|
|--------------------------------|--------------------------------|

 |    |    |    |    |    |    |    |
|--------------------------------|--------------------------------|
|2-------2-------0---2-------0---|2-------0---2-------0-----------|
|--------------------------------|------------------------2---1---|
|--------------------------------|--------------------------------|

 |    |    |    |    |    |    |    |
|--------------------------------|--------------------------------|
|--------------------2---2-------|--------------------------------|
|0-------0-----0-4-----------0---|----0---0-------2-------4---0---|
|--------------------------------|--------------------------------|

 |    |    |    |    |    |    |    |
|--------------------------------|--------------------------------|
|0-------0-----0-0-----------0---|----0---0---0---0---2---0---2---|
|--------------------2---0-------|--------------------------------|
|--------------------------------|--------------------------------|

 |    |    |    |    |    |    |    |
|0---0-----------------------0---|----0-------0-------------------|
|--------2-------0-------2-------|----------------2---0-----------|
|--------------------------------|------------------------2---0---|
|--------------------------------|--------------------------------|

 |    |    |    |    |    |    |    |
|--------------------------------|--------------------------------|
|2-------2---2---2---2---2---2---|0---2---2---2---0---2---2---0---|
|--------------------------------|--------------------------------|
|--------------------------------|--------------------------------|

 |    |    |    |    |    |    |    |
|--------------------------------|--------------------------------|
|--------------------------------|--------------------------------|
|0-------2-------3-------4---0---|----0---2-------3---3---4---4---|
|--------------------------------|--------------------------------|

 |    |    |    |    |    |    |    |
|----------------4---2-----------|----------------4---2-----------|
|0---0---0---0-----------3/4-0---|0---0---0---0-----------3/4-0---|
|--------------------------------|--------------------------------|
|--------------------------------|--------------------------------|

 |    |    |    |    |    |    |    |
|--------------------------------|--------------------------------|
|--------------------------------|------------------------0-------|
|3---3---0-------3-----------3---|----3---0-------3---4-----------|
|--------------------------------|--------------------------------|

 |    |    |    |    |    |    |    |
|0-----------0-------------------|0---------------0---------------|
|----------------0-----------0---|------------0-----------4-------|
|--------------------------------|--------------------------------|
|--------------------------------|--------------------------------|

 |    |    |    |    |    |    |    |
|--------------------------------|--------------------------------|
|2-----------2-------------------|2---2-----------2-------0-------|
|----------------2-----------2---|------------2-------------------|
|--------------------------------|--------------------------------|

 |    |    |    |    |    |    |    |
|--------------------------------|--------------------------------|
|--------------------------------|--------------------------------|
|3---3-------3-------------------|3---3-------2---3-------4-------|
|----------------3-----------3---|--------------------------------|

 |    |    |    |    |    |    |    |
|--------------------------------|------------------------0-------|
|0---0-----------0-----------0---|--------0-------0---2-------2---|
|------------0-----------0-------|----0---------0-----------------|
|--------------------------------|--------------------------------|

 |    |    |    |    |    |    |    |
|0---0-----------------------0---|----0---------------------------|
|--------2-------0-------2-------|--------2-------0---0---2-------|
|--------------------------------|----------------------------0---|
|--------------------------------|--------------------------------|

 |    |    |    |    |    |    |    |
|--------------------------------|----------and so on...----------|
|--------------------------------|--------------------------------|
|2---2-----------2-----------2---|----2-----------2-------0---2---|
|--------2---------------2-------|--------2-----------------------|


m/
http://www.geocities.com/jani_bjorklund/janis.html

Find guitar tabs and chords

A B C D E F G H I J K L M N O P Q R S T U V W X Y Z #