Cold Heart Pnau Remix by Elton John

Cold Heart Pnau Remix tab by Elton John

Intro

  • Difficulty: Intermediate
Key: Bm

Tuning: Drop D

🎸 Intro:

  M     M     M
E|-----------------------------------------|
B|-----------------------------------------|
G|-----------------------------------------|
D|-7h8--------0h1--------3h4--------3------|
A|-7h8--------0h1--------3h4--------3------|
D|-7h8--------0h1--------3h4--------3------|




E|-----------------------------------------------------------------------------------------|
B|-----------------------------------------------------------------------------------------|
G|-----------------------------------------------------------------------------------------|
D|-------8-8-8-----------------1-1-1-----------------4-4-4-----------------3-3-3-----------|
A|-----x-------8-8-8---------x-------1-1-1---------x-------4-4-4---------x-------3-3-3-----|
D|-8-8-x-------------8-8-1-1-x-------------1-1-4-4-x-------------4-4-3-3-x-------------3-3-|


************************************

| M mute
| h Hammer-on
| x finger mute

************************************

Find guitar tabs and chords

A B C D E F G H I J K L M N O P Q R S T U V W X Y Z #