Cold Heart Pnau Remix by Elton John

Cold Heart Pnau Remix bass tab by Elton John

Bass tabs

  • Difficulty: Beginner
Key: Bbm

Cold Heart (PNAU Remix) - Elton John and Dua Lipa

Tuning: Eb Ab Db Gb



Intro:


   1 e & a 2 e & a 3 e & a 4 e & a
Gb|--------------------------------------------------|
Db|--------------------------------------------------|
Ab|--------------------------------------------------| x4
Eb|--------------------------------------------------|

   1 e & a 2 e & a 3 e & a 4 e & a
Gb|--------------------4--4--------------------------|
Db|--------------------------------4--4--------------|
Ab|--2-----------------------------------------5--5--|
Eb|--------------------------------------------------|

   1 e & a 2 e & a 3 e & a 4 e & a
Gb|--------------------------------------------------|
Db|--------------------2--2--------------------------|
Ab|--------------------------------2--2--------------|
Eb|--0-----------------------------------------0--0--|

   1 e & a 2 e & a 3 e & a 4 e & a
Gb|--------------------------------------------------|
Db|--------------------5--5--------------------------|
Ab|--------------------------------5--5--------2--2--|
Eb|--3-----------------------------------------------|

   1 e & a 2 e & a 3 e & a 4 e & a
Gb|--------------------------------------------------|
Db|--------------------4--4--------------------------|
Ab|--------------------------------4--4--------------|
Eb|--2-----------------------------------------2--2--|




Verse 1: (All x2)

   1 e & a 2 e & a 3 e & a 4 e & a
Gb|--------------------4--4--------------------------|
Db|--------------------------------4--4--------------|
Ab|--2-----------------------------------------5--5--|
Eb|--------------------------------------------------|

   1 e & a 2 e & a 3 e & a 4 e & a
Gb|--------------------------------------------------|
Db|--------------------2--2--------------------------|
Ab|--------------------------------2--2--------------|
Eb|--0-----------------------------------------0--0--|

   1 e & a 2 e & a 3 e & a 4 e & a
Gb|--------------------------------------------------|
Db|--------------------5--5--------------------------|
Ab|--------------------------------5--5--------2--2--|
Eb|--3-----------------------------------------------|

   1 e & a 2 e & a 3 e & a 4 e & a
Gb|--------------------------------------------------|
Db|--------------------4--4--------------------------|
Ab|--------------------------------4--4--------------|
Eb|--2-----------------------------------------2--2--|


Pre-Chorus: (All x2)

   1 e & a 2 e & a 3 e & a 4 e & a
Gb|--------------------4--4--------------------------|
Db|--------------------------------4--4--------------|
Ab|--2-----------------------------------------5--5--|
Eb|--------------------------------------------------|

   1 e & a 2 e & a 3 e & a 4 e & a
Gb|--------------------------------------------------|
Db|--------------------2--2--------------------------|
Ab|--------------------------------2--2--------------|
Eb|--0-----------------------------------------0--0--|

   1 e & a 2 e & a 3 e & a 4 e & a
Gb|--------------------------------------------------|
Db|--------------------5--5--------------------------|
Ab|--------------------------------5--5--------2--2--|
Eb|--3-----------------------------------------------|

   1 e & a 2 e & a 3 e & a 4 e & a
Gb|--------------------------------------------------|
Db|--------------------4--4--------------------------|
Ab|--------------------------------4--4--------------|
Eb|--2-----------------------------------------2--2--|


Chorus: (All x4)

   1 e & a 2 e & a 3 e & a 4 e & a
Gb|--------------------4--4--------------------------|
Db|--------------------------------4--4--------------|
Ab|--2-----------------------------------------5--5--|
Eb|--------------------------------------------------|

   1 e & a 2 e & a 3 e & a 4 e & a
Gb|--------------------------------------------------|
Db|--------------------2--2--------------------------|
Ab|--------------------------------2--2--------------|
Eb|--0-----------------------------------------0--0--|

   1 e & a 2 e & a 3 e & a 4 e & a
Gb|--------------------------------------------------|
Db|--------------------5--5--------------------------|
Ab|--------------------------------5--5--------2--2--|
Eb|--3-----------------------------------------------|

   1 e & a 2 e & a 3 e & a 4 e & a
Gb|--------------------------------------------------|
Db|--------------------4--4--------------------------|
Ab|--------------------------------4--4--------------|
Eb|--2-----------------------------------------2--2--|


Pre-Chorus:

   1 e & a 2 e & a 3 e & a 4 e & a
Gb|--------------------4--4--------------------------|
Db|--------------------------------4--4--------------|
Ab|--2-----------------------------------------5--5--|
Eb|--------------------------------------------------|

   1 e & a 2 e & a 3 e & a 4 e & a
Gb|--------------------------------------------------|
Db|--------------------2--2--------------------------|
Ab|--------------------------------2--2--------------|
Eb|--0-----------------------------------------0--0--|

   1 e & a 2 e & a 3 e & a 4 e & a
Gb|--------------------------------------------------|
Db|--------------------5--5--------------------------|
Ab|--------------------------------5--5--------2--2--|
Eb|--3-----------------------------------------------|

   1 e & a 2 e & a 3 e & a 4 e & a
Gb|--------------------------------------------------|
Db|--------------------4--4--------------------------|
Ab|--------------------------------4--4--------------|
Eb|--2-----------------------------------------2--2--|

   1 e & a 2 e & a 3 e & a 4 e & a
Gb|--------------------4--4--------------------------|
Db|--------------------------------4--4--------------|
Ab|--2-----------------------------------------5--5--|
Eb|--------------------------------------------------|

   1 e & a 2 e & a 3 e & a 4 e & a
Gb|--------------------------------------------------|
Db|--------------------2--2--------------------------|
Ab|--------------------------------2--2--------------|
Eb|--0-----------------------------------------0--0--|

   1 e & a 2 e & a 3 e & a 4 e & a
Gb|--------------------------------------------------|
Db|--------------------5--5--------------------------|
Ab|--------------------------------5--5--------2--2--|
Eb|--3-----------------------------------------------|

   1 e & a 2 e & a 3 e & a 4 e & a
Gb|--------------------------------------------------|
Db|--------------------------------------------------|
Ab|--------------------------------------------------|
Eb|--2-----------------------------------------------|


Chorus: (All x4)

   1 e & a 2 e & a 3 e & a 4 e & a
Gb|--------------------4--4--------------------------|
Db|--------------------------------4--4--------------|
Ab|--2-----------------------------------------5--5--|
Eb|--------------------------------------------------|

   1 e & a 2 e & a 3 e & a 4 e & a
Gb|--------------------------------------------------|
Db|--------------------2--2--------------------------|
Ab|--------------------------------2--2--------------|
Eb|--0-----------------------------------------0--0--|

   1 e & a 2 e & a 3 e & a 4 e & a
Gb|--------------------------------------------------|
Db|--------------------5--5--------------------------|
Ab|--------------------------------5--5--------2--2--|
Eb|--3-----------------------------------------------|

   1 e & a 2 e & a 3 e & a 4 e & a
Gb|--------------------------------------------------|
Db|--------------------4--4--------------------------|
Ab|--------------------------------4--4--------------|
Eb|--2-----------------------------------------2--2--|


Pre-Chorus:

   1 e & a 2 e & a 3 e & a 4 e & a
Gb|--------------------------------------------------|
Db|--------------------------------------------------|
Ab|--------------------------------------------------| x8
Eb|--------------------------------------------------|


Chorus: (All x4)

   1 e & a 2 e & a 3 e & a 4 e & a
Gb|--------------------4--4--------------------------|
Db|--------------------------------4--4--------------|
Ab|--2-----------------------------------------5--5--|
Eb|--------------------------------------------------|

   1 e & a 2 e & a 3 e & a 4 e & a
Gb|--------------------------------------------------|
Db|--------------------2--2--------------------------|
Ab|--------------------------------2--2--------------|
Eb|--0-----------------------------------------0--0--|

   1 e & a 2 e & a 3 e & a 4 e & a
Gb|--------------------------------------------------|
Db|--------------------5--5--------------------------|
Ab|--------------------------------5--5--------2--2--|
Eb|--3-----------------------------------------------|

   1 e & a 2 e & a 3 e & a 4 e & a
Gb|--------------------------------------------------|
Db|--------------------4--4--------------------------|
Ab|--------------------------------4--4--------------|
Eb|--2-----------------------------------------2--2--|


Outro:

   1 e & a 2 e & a 3 e & a 4 e & a
Gb|--------------------4--4--------------------------|
Db|--------------------------------4--4--------------|
Ab|--2-----------------------------------------5--5--|
Eb|--------------------------------------------------|

   1 e & a 2 e & a 3 e & a 4 e & a
Gb|--------------------------------------------------|
Db|--------------------2--2--------------------------|
Ab|--------------------------------2--2--------------|
Eb|--0-----------------------------------------0--0--|

   1 e & a 2 e & a 3 e & a 4 e & a
Gb|--------------------------------------------------|
Db|--------------------5--5--------------------------|
Ab|--------------------------------5--5--------2--2--|
Eb|--3-----------------------------------------------|

   1 e & a 2 e & a 3 e & a 4 e & a
Gb|--------------------------------------------------|
Db|--------------------4--4--------------------------|
Ab|--------------------------------4--4--------------|
Eb|--2-----------------------------------------2--2--|

   1 e & a 2 e & a 3 e & a 4 e & a
Gb|--------------------4--4--------------------------|
Db|--------------------------------4--4--------------|
Ab|--2-----------------------------------------5--5--|
Eb|--------------------------------------------------|

   1 e & a 2 e & a 3 e & a 4 e & a
Gb|--------------------------------------------------|
Db|--------------------2--2--------------------------|
Ab|--------------------------------2--2--------------|
Eb|--0-----------------------------------------0--0--|

   1 e & a 2 e & a 3 e & a 4 e & a
Gb|--------------------------------------------------|
Db|--------------------------------------------------|
Ab|--------------------------------------------------|
Eb|--3-----------------------------------------------|

   1 e & a 2 e & a 3 e & a 4 e & a
Gb|--------------------------------------------------|
Db|--------------------------------------------------|
Ab|--------------------------------------------------|
Eb|--------------------------------------------------|

Find guitar tabs and chords

A B C D E F G H I J K L M N O P Q R S T U V W X Y Z #