Chameleon by Elton John

Chameleon bass tab by Elton John

Bass tabs

Tuning: Standard (E A D G)

Intro/Verse 1:
(00:00 ~ 00:58 - No Bass)

Pre-Chorus:
(00:59)
G|-----|----------------------|---------------------|---------------------|---------7-\6-/7-------|
D|-----|----------------------|---------------------|---------------------|-----------------------|
A|-----|----------------------|---------------------|------------------3-4|-5------------------5-\|
E|-14-\|-3------3-3-3------3-3|-5-------5-5------5-5|-6-------6-6---------|-----------------------|

Chorus:
G|------------------------|--------------------------|----------------------|-------------------------|
D|-------------5-----2----|-------------5------------|----------------------|-------------------------|
A|---------2-5---------5-2|---------2-5-----------2--|-3-------3-3-----2-3-4|-5----5-5-5-5-7-----6-7-8|
E|-3-----3----------------|-3-----3--------3-3-5----3|----------------------|-------------------------|

G|------------------------|------------------------|-----------7-\6-/7-----|
D|-------------------9----|---------------------7--|---------7-------------|
A|-9----9-9-0-0-----------|-7-----7----------------|-5---------------------|
E|--------------7-------7-|---------7-6-5-----5---5|-----------------------|

G|-------------------------|-----------3-4------------|-------------------------|
D|-------------------------|-----------------------4-3|-2-----2-----------------|
A|------------------------5|-2---2-2-------2-2---2----|---------0-2-3----5------|
E|-3---3-3---3-3-3-3----5--|--------------------------|--------------------0-2-2|

Solo:
G|------------------------|-----------------7---7-|------------------------|----------------------|
D|---------5---4----4--4--|-2---------------------|------------------------|----------------------|
A|-------5---0-----------2|--------3-4-5------5---|-3-----3-3---2-----2----|---------2-3---3-5---5|
E|-3----------------------|-----------------------|-----------3---------3-4|-5--------------------|

Verse 2:
G|-------------------------|------------------------|------------------------|--------------------------|
D|-5--------5---4-------4--|-2-----2----------------|------------------------|--------------------------|
A|--------5---0-------4---2|---------3-4-5-------0-5|-3-------3---2-----2----|--------------------2-3-/7|
E|------3------------------|-------------------2----|-------3---0---------3-4|-5-------5-5-5-5--5-------|

G|------------------------|-----------------------|------------------------|---------------------------|
D|-----------7-4-----4----|-----------------------|------------------------|---------------------------|
A|-5-----5-5-----------5-6|-7--------7-5-----0-5-4|-3-----3-3-3-2-----2----|---------------------------|
E|------------------------|--------7--------------|---------------------3-4|-5------5-5-5-5-5-5-5-3-2-1|

Pre-Chorus:
G|------------------------|------------------------|--------------------------|
D|------------------------|------------------------|------4---4-4-------------|
A|-------------7----------|------------------------|--------------------------|
E|-0-----4-6-7-------0-3-4|-5-----5-5-0-3-----3-3-0|-2------------2-2-2-2-0-2-|

G|-----------------------|--------------------------|------------------------|-----------7-\6-/7-------|
D|-----------5-----------|---------7\6-7------------|-------------8----------|---------7---------------|
A|---------5-------------|--------------------------|---------6/8------------|-5--------------------5-\|
E|-3-------------3-3--3-3|-5--------------5-5-5--5-5|-6---------------6-6---6|-------------------------|

Chorus:
G|--------------------------|---------------------------|------------------------|-------------------------|
D|-----------4-5------------|-5-------------------------|------------------------|-------------------------|
A|-------2-5-------------2-5|----------2-5-------0-0-2--|-3-----3-3-3-3-----2-3-4|-5----5-5-5-5-7-----6-7-8|
E|-3-------------3-3---3----|----3---3-----3--3--------3|------------------------|-------------------------|

G|------------------------|------------------------|-----------7-\6-/7-----|
D|------------------------|------------------------|---------7-------------|
A|-9-----------2-----4-5-6|-7-----4---------------4|-5---------------------|
E|-------2-5-5------------|---------7-6-5-----5-7--|-----------------------|

G|-------------------------|---------3-4-------------|----------------------|
D|-------------------------|--------------3-4--------|-2-----2--------------|
A|----------------------5-4|-2----------------2-x---2|---------0-2-3--------|
E|-3---3-3---3-3--3---3----|----------------------3--|-------------------2--|

G|------------------------|------------------------|
D|---------5---4-----4----|------------------------|
A|-------5---0---------5-6|-7-------7---5-----0-5-4|
E|-3----------------------|-------7---7------------|

Outro:
G|---------4-5-------------|---------2-3--------------|--------------------------|
D|-------------------------|-------------0-1-2-3------|--------------------------|
A|-3-----------3----------0|-1-------------------0-1-2|-3---------------------0-3|
E|---------------0--1-1-3--|--------------------------|-------1--0-1-0-2--3-3----|

G|---------2-3------------|
D|------------------------|
A|-1-----------0-1--1--1-2|
E|------------------------|

G|-------2-3-4-5------------------|---------------------------|---------------------------|
D|--------------------------------|---------------------------|---------------------------|
A|-3-------------(x-x-3)-------0-3|-1-----0-1-1--1---------0-2|-3-----3-------------------|
E|-----------------------0-2-3----|----------------0-1-2-3----|---------0-0--0-1-0-2-0-3-3|

G|---------3---3-3-3-3-4-4-5|
D|-------3------------------|
A|-1------------------------|
E|--------------------------|

G|---------5------------------|---------3-3----------------|---------5-7-7-5------------|
D|-------5--------------------|-------3-----0-----3---0----|-------5---------5---0------|
A|-3---------x-3--------------|-1-------------1-1---1---1-2|-3-----------------0---4-3-2|
E|---------------0-1-2-2-2-2-3|----------------------------|----------------------------|

G|-------0-3-2-3--------------|
D|---------------0-1-2-3------|
A|-1---------------------0-1-2|
E|----------------------------|

G|---------------------------|-------3-2-3-2-3------------|----------------------------------|
D|---------------------------|-----------------1-2-4------|-----------12-10------------------|
A|-3-----3------------------0|-1---------------------0-1-2|-3----/-10-------10-10---0-------0|
E|---------0-1--0-1-1-3-1-3--|----------------------------|-----------------------8---1-3-3--|

G|-------3-2-3----------------|
D|----------------------------|
A|-1-----------0-1-----------2|
E|-----------------0-1-3-2-3--|

G|--------------------------------------|-------2-3-2-3--------------|
D|-----------10-12-/14-\12-10------0----|----------------------------|
A|-3----/-10------------------10-0---4-3|-1-------------0-1-1-1-0-2-0|
E|--------------------------------------|----------------------------|

G|--------------------------|-------2-3-2-3-2-3----------|---------5-7-5--------------|
D|--------------------------|-------------------0-1-2----|-------5-------5-0----------|
A|-3---------------------0-3|-1-----------------------1-2|-3-----------------3-0------|
E|-------0--1--1-3-0-1-3----|----------------------------|-----------------------1-3-3|

G|---------3-5-3---3-5-3------| fade out
D|-------3-------3-------3----|
A|-1-----------------------1-2|
E|----------------------------|


**************************************

| / Slide up
| \ Slide down
| x Dead note
| (n-n) Fast

**************************************

Find guitar tabs and chords

A B C D E F G H I J K L M N O P Q R S T U V W X Y Z #