Captain Fantastic by Elton John

Captain Fantastic bass tab by Elton John

Bass tabs

Tuning: Standard (E A D G)

Key: C

Intro:
(Around 0:30)
G|---------------------------------------7---11-11\9--9--11/12----12p11p9-7-|
D|---0------4--2---2--5----5p4p2-0---4/7------------------------------------|
A|--------------------------------------------------------------------------|
E|--------------------------------------------------------------------------|

G|------------------|
D|------------------|
A|--7p0-5-----------|
E|------------------|

Verse 1:
"Wake up Maggie I think I got somethin' to say to you..."
G|------------------------------------------------------------7/9-----------|
D|--------7---6---5--------------------------------------7-7--7/9--7-7------|
A|-----7------------5-----------5-5----5---5-----7/8*-9---------------------|
E|-5------------------3---3-5/7---------------------------------------------|
*I know it isn't normal to slide up just one fret, but thats what it sounds like in the
So just do it.

G|------------------------------------7----------9--------------------------|
D|---7-------6--5---------------5------------7-9-----79-79-7----------------|
A|-----7----------5----------5--5--------7/9-----------------9-7------------|
E|-------5----------3---5/7-------------------------------------------------|

G|-----------------------7--------------------------------------------------|
D|-----5-----------------7------7---------5-----5-----------7---------------|
A|-------5-----------5---5--7/9---9\7--5----------5-----7-----7-------------|
E|-3-------3----5/7---------------------------------3-----------5-5---------|

G|-----------------------------------------------9--------------------------|
D|--------------------------------------------9------9----------------------|
A|-7--7----8-9---7--h9-9-9---9\8--7------7---------------7------------------|
E|--------------------------------------------------------------------------|

G|--------------------------------------------------------------------------|
D|------------------------------------------------7------7------------------|
A|-7-------8-9\**-------9\8-7----7--7---8-9----------7/9---9\8--7---7-7-----|
E|---------------5---------------------------5------------------------------|

G|------------------------------------------------x-7--7--------------------|
D|------7----7----5\4--------------------------7------79--------------------|
A|-9------------------7--5--5------5-5---7/9--------------------------------|
E|-------------------------------5------------------------------------------|

************************************

| p Pull-off
| / Slide up
| \ Slide down
| * Natural harmonic
| h Hammer-on
| x Dead note


************************************

Find guitar tabs and chords

A B C D E F G H I J K L M N O P Q R S T U V W X Y Z #