Bullet In The Gun Of Robert Ford by Elton John

Bullet In The Gun Of Robert Ford tab by Elton John

Solo guitar tabs

Intro:

  D D  C  B   B D A A   G F E C  D C B C  D E  B A
E|----------------|---------------|-----------|-----------|-------------|
B|-15-15p-13p-12b-|-12\3--10-10br-|-8-6b-5----|-----------|-------------|
G|----------------|---------------|---------5-|-7p-5---5h-|-7-9b\-------|
D|----------------|---------------|-----------|------9----|--------9b-7-|
A|----------------|---------------|-----------|-----------|-------------|
E|----------------|---------------|-----------|-----------|-------------|

  C D D D  E G E G  A  A     D D  C  B  B D  A A
E|----------|---------|------------|----------------|--------------|
B|----------|---8---8-|-10-10b-----|-15-15p-13p-12b-|-12\3-10-10br-|
G|-5-7-7b-7-|-9---9---|------------|----------------|--------------|
D|----------|---------|------------|----------------|--------------|
A|----------|---------|------------|----------------|--------------|
E|----------|---------|------------|----------------|--------------|

  G B  A  G  G F F E  E D C B  C D E B  B C B B
E|-------------|-----------|------------|------------|-------------|
B|-8-12p-10b\8-|-8---------|------------|------------|-------------|
G|-------------|---10-10-9-|-9-7--------|----7h-9----|-------------|
D|-------------|-----------|-----10p-9h-|-10------9b-|-9h-10-9b-9h-|
A|-------------|-----------|------------|------------|-------------|
E|-------------|-----------|------------|------------|-------------|

  C D E G  B A  G B  D E G E  E  D A G  A G
E|-----------|-------------|-10-12-15-12-|-12b-10------|---------|
B|---------8-|-12-10p-8-12-|-------------|-------10p-8-|10-8-----|
G|----7h-9---|-------------|-------------|-------------|---------|
D|-10--------|-------------|-------------|-------------|---------|
A|-----------|-------------|-------------|-------------|---------|
E|-----------|-------------|-------------|-------------|---------|

***********************************
| \ Slide down
| h Hummer-on
| p Pull-off
| b Bend
| br Bend release

Find guitar tabs and chords

A B C D E F G H I J K L M N O P Q R S T U V W X Y Z #