Blue Wonderful by Elton John

Blue Wonderful bass tab by Elton John

Bass tabs

Intro:
G|---------------------------------|------------------------11--8----|
D|---------------------------------|9--------------------------------|
A|7--------------------------------|---------------------------------|
E|---------------------------------|---------------------------------|

G|6--------------------------------|---------------------------------|
D|----------------7---\---2---/----|9--------------------------------|
A|---------------------------------|---------------------------------|
E|---------------------------------|----------------0----------------|

Verse 1:
G|----------------------------|---------------------------------|
D|----------------------------|9---------------9----------------| *4 instead
A|----------------------------|---------------------------------| of 8 on 1st bar
E|----------------------------|---------------------------------|

G|---------------------------------|---------------------------------|
D|9--------------------------------|7---------------9----------------|
A|---------------------------------|--------7------------------------|
E|---------------------------------|---------------------------------|

G|---------------------------------|---------------------------------|
D|9--------------------------------|------------2-/-9----------------|
A|---------------------------------|---------------------------------|
E|------------2-/-12------0--------|---------------------------------|

G|---------------------------------|---------------------------------|
D|9-----------9-/-11---------------|7-------2-----/-9----------------|
A|---------------------------------|---------------------------------|
E|---------------------------------|---------------------------------|

G|---------------------------------|
D|---------------------------------|
A|7---------------------------6----|
E|----------------0----------------|

Chorus:
G|---------------------------------|---------------------------------|
D|----------11--9------------------|---------------------------------|
A|4-----/-11------0----------------|----------------7-------7--------|
E|---------------------------------|0-------7------------------------|

G|---------------------------------|---------------------------------|
D|----------11--9------------------|---------------------------------|
A|4-----/-11------0----------------|----------------7----------------|
E|---------------------------------|0-------7---------------0--------|

G|---------------------------------|------------------------------7--|
D|9-----------9---7---7---7---7----|5---------------5-------7-9------|
A|--------9------------------------|--------5------------------------|
E|---------------------------------|---------------------------------|

G|---------------------------------|----------------4----------------|
D|4---------------4---4------------|--------4------------------------|
A|--------4---------------4--------|2--------------------------------|
E|---------------------------------|---------------------------------|

Verse 2:
G|---------------------------------|---------------------------------|
D|-------------------------------/-|9---------------9----------------|
A|7--------------------------------|--------9---------------7---6----|
E|--------0-------0-------0--------|---------------------------------|

G|---------------------------------|---------------------------------|
D|---------------------------------|------------4-/-9----------------|
A|4-------4---2---0----------------|--------------------4---6--------|
E|------------------------0--------|7---------------------------7----|

G|---------------------------------|--------------/-8-------6--------|
D|---------------------------------|------------4--------------------|
A|7--------------------------------|2---------------------------2----|
E|--------0-------0-------0--------|---------------------------------|

G|---------------------------------|---------------------------------|
D|---------------------------------|9-------9------------------------|
A|4-------4---------------7--------|----------------7-------7---7-7--|
E|----------------5----------------|---------------------------------|

G|---------------|
D|---------------| * 4 instead of 8
A|7---7---6------|
E|---------------|

Chorus:
G|---------------------------------|---------------------------------|
D|----------11--9------------------|---------------------------------|
A|4-----/-11------0----------------|----------------7-----------6----|
E|---------------------------------|0-------7---------------0--------|

G|---------------------------------|---------------------------------|
D|--------11--9--------------------|---------------------------------|
A|4---/-11--------0----------------|----------------7----------------|
E|---------------------------------|0-------7---------------0--------|

G|---------------------------------|----------------------------7----|
D|9-----------9--------------------|5---------------5---------9------|
A|--------9-------0----------------|--------5------------------------|
E|---------------------------------|---------------------------------|

G|---------------------------------|---------------------------------|
D|4---------------4----------------|--------4------------------------|
A|--------4---------------4--------|2---------------2----------------|
E|---------------------------------|---------------------------------|

Solo:
G|---------------------------------|---------------------------------|
D|--------5---------------------5--|7---------------9-------10-------|
A|3---------------3-------5--7-----|--------7-------------------10---|
E|---------------------------------|---------------------------------|

G|---------------------------------|---------------------------------|
D|----------------7----------------|5--------------------------------|
A|8-----------------------8--------|--------5---------------0---2----|
E|--------8------------------------|----------------3----------------|

G|---------------------------------|---------------------------------|
D|--------5-------------------5----|7---------------9-------10-------|
A|3---------------3---5-/-7--------|--------7-------------------10---|
E|---------------------------------|---------------------------------|

G|---------------------------------|----------------5----------------|
D|---------------------------------|5-----------------------5--------|
A|8---------------0-------0---3----|------------5--------------------|
E|--------8------------------------|--------7------------------------|

G|---------------|
D|---------------| * 4 instead of 8
A|3--------------|
E|---------------|

Chorus:
G|---------------------------------|---------------------------------|
D|----------11--9------------------|---------------------------------|
A|4-----/-11------0----------------|----------------------------6----|
E|---------------------------------|0-------7-------0-------0--------|

G|---------------------------------|---------------------------------|
D|--------11--9--------------------|------------------------6---7----|
A|4---/-11--------0----------------|----------------7----------------|
E|---------------------------------|0-------7------------------------|

G|---------------------------------|----------------------------7----|
D|9-----------9--------------------|5---------------5-------/-9------|
A|-----/--9-------0----------------|--------5------------------------|
E|---------------------------------|---------------------------------|

G|----------------11--11--11--\----|---------------------------------|
D|4---/---11-----------------------|----------------9----------------|
A|---------------------------------|----6---7---9--------------------|
E|---------------------------------|7--------------------------------|

Verse 3:
G|---------------------------------|---------------------------------|
D|---------------------------------|9--------------------------------|
A|---------------------------------|---------------------------------|
E|0--------------------------------|---------------------------------|

G|---------------------------------|---------------------------------|
D|------------/---7---\---2--------|9--------------------------------|
A|4--------------------------------|---------------------------------|
E|---------------------------------|---------------------------------|

G|---------------------------------|--------------/-8-------6--------|
D|---------------------------------|------------4---------------9----|
A|7--------------------------------|2--------------------------------|
E|----------------0---0---0---0-/--|---------------------------------|

G|---------------------------------|---------------------------------|
D|----------11--9------------------|9-------9------------------------|
A|4-----/-11------0----------------|----------------7-------7---6----|
E|------------------------0--------|---------------------------------|

G|---------------------------------|------------11--------------7----|
D|----------11--9------------------|9---------------9----------------|
A|4-----/-11------0----------------|--------9---------------9--------|
E|------------------------0--------|---------------------------------|

G|------------4--------------------|--------7-------7-7-----7--------|
D|5--------------------------------|---------------------------------|
A|--------5------------------------|5----/-7--------------------7----|
E|----------------3-----3-3-/-7----|---------------------------------|

G|---------------------------------|
D|---------------------------------|
A|--------4---7--------------------|
E|5---------------5----------------|

Outro:
G|---------------------------------|------------------------11--8----|
D|------------------------------/--|9------------------------------/-|
A|6h7------------------------------|---------------------------------|
E|---------------------------------|---------------------------------|

G|---------------------------------|---------------------------------|
D|11----------9---7----------------|8h9------------------------------|
A|------------------------7--------|----------------7----------------|
E|---------------------------------|---------------------------------|

G|---------------------------------|---------------------------------|
D|---------------------------------|---------------------------------|
A|7--------------------------------|---------------------------------|
E|---------------------------------|---------------------------------|

************************************

| / Slide up
| \ Slide down
| h Hammer-on

Find guitar tabs and chords

A B C D E F G H I J K L M N O P Q R S T U V W X Y Z #