Ball And Chain by Elton John

Ball And Chain bass tab by Elton John

Bass tabs

Tuning: Standard (E A D G)

Difficulty: Novice

Verse 1:
(00:05)
G|-------------------|-------------------|-------------------|---------------------|
D|-------------------|-------------------|-------------------|---------------------|
A|-1---------1-------|------0----1-------|-1---------1-------|------0----1----8---\|
E|------1------------|-1-----------------|------1------------|-1-------------------|

G|-------------------|-------------------|-------------------|-------------------------|
D|-------------------|-------------------|-------------------|------------------0-1--3-|
A|-1---------1-------|------0----1-------|-1---------1-------|------0----1--1-3--------|
E|------1------------|-1-----------------|------1------------|-1-----------------------|

Pre-Chorus:
G|--------------------|---------------------|---------------------|------------|
D|-----------1--------|---------------------|---------------------|------------|
A|------3---------1---|-1---------1---------|------3------------0-|-1-------1-/|
E|-1------------------|------1---------5--3-|-1---------3----4----|------1-----|

Chorus:
G|------------|------------|-------|---------------------|
D|-6----------|-6----------|-6----0|---------------------|
A|-----6-----6|-----6-----6|----3--|-1---------1----3--5-|
E|-------4----|-------4----|-------|------1--------------|

G|------------|------------|------|--------------------|
D|-6----------|-6---------0|-3----|--------------------|
A|-----6-----6|-----6------|----0-|-1---------1--------|
E|-------4----|-------4----|------|------1---------1---|

Verse 2:
G|-------------------|-------------------|-------------------|-------------------------|
D|-------------------|-------------------|-------------------|------------------0-1--3-|
A|-1---------1-------|------0----1-------|-1---------1-------|------0----1--1-3--------|
E|------1------------|-1-----------------|------1------------|-1-----------------------|

Pre-Chorus:
G|--------------------|---------------------|--------------------|------------|
D|-----------1--------|---------------------|-----------1--------|------------|
A|------3---------1---|-1---------1---------|------3---------0---|-1-------1-/|
E|-1------------------|------1---------5--3-|-1------------------|------1-----|

Chorus:
G|------------|------------|-------|----------------------|
D|-6----------|-6----------|-6----0|----------------------|
A|-----6-----6|-----6-----6|----3--|-1---------1-------1-/|
E|-------4----|-------4----|-------|------1---------1-----|

G|------------|------------|-------|----------------------|
D|-6----------|-6---------0|-3-----|----------------------|
A|-----6-----6|-----6------|-------|-----------1----------|
E|-------4----|-------4----|----5-/|-6----1---------5---3-|

Bridge:
G|--------------------|--------------------|------------|-------------------------|
D|--------------------|-1---------1--------|-1--1--1-3--|-------------------------|
A|--------------------|-----1---------1----|------------|-------------------------|
E|-1----1----1----1---|--------------------|------------|-1----1-----1-1-1-1-1-1-1|

G|--------------------|
D|--------------------|
A|-1----1----1----1---|
E|--------------------|

G|--------------------|--------------------|-----------5--------|--------------------|
D|--------------------|-3----5-------------|-3----5-------------|-3----5-------------|
A|-3---------3--------|-----------3--------|----------------3---|-----------3--------|
E|------3---------3---|----------------3---|--------------------|----------------3---|

G|-----------5--------|--------------------|-----------5--------|---------------------|
D|-3----5-------------|-3----5-------------|-3----5-------------|-3----5---------1--1-|
A|----------------3---|-----------3--------|----------------3---|-----------3---------|
E|--------------------|----------------3---|--------------------|---------------------|

Verse 3:
G|-------------------|-------------------|-------------------|-------------------------|
D|-------------------|-------------------|-------------------|------------------0-1--3-|
A|-1---------1-------|------0----1-------|-1---------1-------|------0----1--1-3--------|
E|------1------------|-1-----------------|------1------------|-1-----------------------|

Pre-Chorus:
G|--------------------|----------------------|----------------------|------------|
D|-----------1--------|----------------------|-----------1----------|------------|
A|------3---------1---|-1---------1----3--5-\|------3-------------0-|-1-------1-/|
E|-1------------------|------1---------------|-1-----------3---4----|------1-----|

Chorus:
G|------------|------------|------|-------3-----------|
D|-6----------|-6----------|-6----|-----3-------------|
A|-----6-----6|-----6-----6|----3-|-1-----------------|
E|-------4----|-------4----|------|-------------------|

G|------------|------------|------|-------------------|
D|-6----------|-6---------0|-3----|----------------3-5|
A|-----6-----6|-----6------|----0-|-1-----------------|
E|-------4----|-------4----|------|-------------------|

Pre-Chorus:
G|--------------------|---------------------|---------------------|---------------------|
D|-----------1--------|---------------------|-----------1----0----|---------------------|
A|------3---------1---|-1---------1---------|------3------------3-|-1---------1---------|
E|-1------------------|------1---------5--3-|-1-------------------|------1---------5--3-|

G|----------------------|---------------------|--------------------|-----------|
D|-----------1----------|---------------------|-----------1--------|-----------|
A|------3-------------0-|-1---------1----3--5-|------3---------0---|-1---------|
E|-1-----------3---4----|------1--------------|-1------------------|------1---/|

Chorus/Outro:
G|------------|------------|-----|---------------------|
D|-6----------|-6----------|-6---|------3---------3---/|
A|-----6-----6|-----6-----6|-----|-1---------1---------|
E|-------4----|-------4----|-----|---------------------|

G|-------------------------|---------|
D|-6-----6-----6-----6----6|-6-------|
A|-------------------------|----0-3-1|
E|---4-----4-----4-----4---|---------|


***********************************

| / Slide up
| \ Slide down

***********************************

Find guitar tabs and chords

A B C D E F G H I J K L M N O P Q R S T U V W X Y Z #