A Good Heart by Elton John

A Good Heart bass tab by Elton John

Bass tabs

Intro:
G|3h5------------------------------|---------------------------------|
D|---------------------------------|6--------------------------------|
A|---------------------------------|---------------------------------|
E|---------------------------------|---------------------------------|

G|3h5------------------------------|---------------------------------|
D|---------------------------------|6--------------------------------|
A|---------------------------------|---------------------------------|
E|---------------------------------|---------------------------------|

Verse 1:
G|7h8---------------------7--------|5--------------------------------|
D|---------------------------------|---------------------------------|
A|---------------------------------|---------------------------------|
E|---------------------------------|---------------------------------|

G|---------------------------------|7h8------------------------------|
D|6--------------------------------|---------------------------------|
A|---------------------------------|---------------------------------|
E|---------------------------------|---------------------------------|

G|---------------------------------|3h5------------------------------|
D|5--------------------------------|------------------------8--------|
A|---------------------------------|---------------------------------|
E|---------------------------------|---------------------------------|
                            \   / triple 12
G|---------------------------------|--------------------12-12---12---|
D|7---------------6----------------|---------------------------------|
A|---------------------------------|---------------------------------|
E|---------------------------------|3--------------------------------|

G|8-----------------------7--------|5---------------5----------------|
D|---------------------------------|------------------------8--------|
A|---------------------------------|---------------------------------|
E|---------------------------------|---------------------------------|

G|---------------------------------|7h8------------------------------|
D|6--------------------------------|---------------------------------|
A|---------------------------------|----------------------------2-/--|
E|---------------------------------|---------------------------------|

G|--------------------------3/8----|5--------------------------------|
D|---------------------------------|------------------------8--------|
A|10-------------------------------|---------------------------------|
E|---------------------------------|---------------------------------|

G|---------------------------------|---------------------------------|
D|7---------------6-----/-8--------|---------------------------------|
A|---------------------------------|6-----------------------5--------|
E|---------------------------------|---------------------------------|

Chorus:
G|---------------------------------|---------------------------------|
D|---------------------------------|---------------------------------|
A|3-----------3--------------------|6-------6---6---6-------5--------|
E|----------------4-------------/6-|---------------------------------|

G|---------------------------------|---------------------------------|
D|---------------------------------|----------------------------5----|
A|3-----------3--------------------|6-----------6---6---6---6h8------|
E|----------------4-------------/6-|---------------------------------|

G|---------------------------------|---------------------------------|
D|3-----------3---4-----------4----|5-----------5---5---\------------|
A|---------------------------------|---------------------------------|
E|---------------------------------|------------------------3--------|

G|-----------------------/3--------|---------------------------------|
D|---------------------------------|---------------------------------|
A|------/-3---3---1----------------|6-------------------\------------|
E|4--------------------------------|-----------------------------2/6-|

Verse 2:
G|---------------------------------|---------------------------------|
D|---------------------------------|-----------/5--------------------|
A|6---------------6-------5--------|3---------------3-------1--------|
E|---------------------------------|---------------------------------|

G|---------------------------------|---------------------------------|
D|---------------------------------|---------------------------------|
A|---------------------------------|6-----------6---6-----6/13-13----|
E|4-----------4---4-------4/6------|---------------------------------|

G|---------------------------------|---------------------------------|
D|---------------------------------|---------------------------------|
A|10----------10--10--\------------|3-------3---3---3------/13---\---|
E|------------------------3--------|---------------------------------|
                           \   / triple 12
G|---------------------------------|----------------7-/12-12--12-9---|
D|7-----------7---6-----------6----|5---5---5---5-----------------12\|
A|---------------------------------|---------------------------------|
E|---------------------------------|---------------------------------|

G|---------------------------------|---------------------------------|
D|------------7h8------------------|---------------------------------|
A|6---------------6-------5--------|3-----------3---3----------------|
E|---------------------------------|------------------------6---\----|

G|---------------------------------|---------------------------------|
D|---------------------------------|--------------------------8-7----|
A|---------------------------------|6-----------6---6---6-/-8--------|
E|4-----------4---4-------4--------|---------------------------------|

G|---------------------------------|---------------------------------|
D|5-----------5---5---3------------|---------------------------------|
A|------------------------6---5----|3-----------3---3----------------|
E|---------------------------------|------------------------6--------|

G|---------------------------------|---------------------------------|
D|---------------------------------|---------------------------------|
A|-------------------------------5h|6---6---6---6---6-------5--------|
E|5-----------5---4-------6--------|---------------------------------|

Chorus:
G|---------------------------------|---------------------------------|
D|---------------------------------|---------------------------------|
A|3-----------3--------------------|6-------6---6---6-------5--------|
E|----------------4-------------/6-|---------------------------------|

G|---------------------------------|---------------------------------|
D|---------------------------------|----------------------------5----|
A|3-----------3--------------------|6-----------6---6---6---6h8------|
E|----------------4-------------/6-|---------------------------------|

G|---------------------------------|---------------------------------|
D|3-----------2-3-4-----------4----|5-----------5---5---\------------|
A|---------------------------------|---------------------------------|
E|---------------------------------|------------------------3--------|

G|-----------------------/3--------|---------------------------------|
D|---------------------------------|---------------------------------|
A|------/-3-------1----------------|6-----------6---6-------6---5----|
E|4--------------------------------|---------------------------------|

Interlude:    \10's x 8 times/
G|---------------------------------|---------------------------------|
D|------------------10-10-10-10-10\|---------------/6-6-5---3---\----|
A|3-3-3-3-3-3-3-3/10---------------|---------------------------------|
E|---------------------------------|4-4-4-4-4-4-4-4------------------|

          \10's x 8 times/
G|---------------------------------|---------------------------------|
D|------------------10-10-10-10-10\|---------------/6---5---3--------|
A|3-3-3-3-3-3-3-3/10---------------|----------------------------6----|
E|---------------------------------|4-4-4-4-4-4-4-4------------------|

G|---------------------------------|---------------------------------|
D|---------------------------------|----------------5----------------|
A|5-----------5---5---\------------|---------------------------------|
E|------------------------4--------|3-----------3-----------3--------|

G|---------------------------------|----------------8----------------|
D|---------------------------------|------------8--------------------|
A|-------/3-------1-------1--------|6-----------------------5--------|
E|4--------------------------------|---------------------------------|

Chorus:
G|---------------------------------|---------------------------------|
D|---------------------------------|------------5-\------------------|
A|3-----------3--------------------|6-------6-8-----6-------5--------|
E|----------------4-------------/6-|---------------------------------|

G|---------------------------------|---------------------------------|
D|---------------------------------|-----------/8---------------5----|
A|3-----------3--------------------|6---------------6-6-6---6h8------|
E|----------------4-------------/6-|---------------------------------|

G|---------------------------------|---------------------------------|
D|3-----------2-3-4-----------3-4--|5-----------5---5---\------------|
A|---------------------------------|---------------------------------|
E|---------------------------------|------------------------3--------|

G|-----------------------/3--------|----------------8-8-8------------|
D|---------------------------------|------------6h8---------1-/-5----|
A|------/-3-------1----------------|6---6---6------------------------|
E|4--------------------------------|---------------------------------|

G|---------------------------------|--------------/-4----------------|
D|3-----------3---4-----------4----|5-----/-7---------------5---\----|
A|---------------------------------|---------------------------------|
E|---------------------------------|---------------------------------|

G|-----------------------/3--------|
D|---------------------------------|
A|------/-3-------1----------------|
E|4--------------------------------|

Outro:      \10's x 8 times/
G|---------------------------------|---------------------------------|
D|------------------10-10-10-10-10\|6-6-6-6-6-6-6-6-5-5-5-5----------|
A|3-3-3-3-3-3-3-3/10---------------|------------------------8-8-8-6--|
E|---------------------------------|---------------------------------|
          \10's x 8 times/
G|---------------------------------|---------------------------------|
D|------------------10-10-10-10-10\|----------------6---5------------|
A|3--------------/10---------------|------------------------8---6----|
E|---------------------------------|4-4-4-4-4-4-4-4------------------|

G|---------------------------------|---------------------------------|
D|---------------------------------|----------------5----------------|
A|5-----------5---5---\------------|---------------------------------|
E|------------------------4--------|3-----------3--------------------|

G|------------------------3--------|---------------------------------|
D|---------------------------------|---------------------------------|
A|---------/--3---1----------------|6--------------------------------|
E|4--------------------------------|---------------------------------|

Find guitar tabs and chords

A B C D E F G H I J K L M N O P Q R S T U V W X Y Z #