Log in

One click and you are in

Login with Facebook Login with Google

Why sign up and log in

Guitar Tabs Explorer
Billy Joel bass tabs for I dont want to be alone

I Don't Want To Be Alone bass tab by Billy Joel

Billy Joel bass tabs for I dont want to be alone

Bass tabs

Tuning: Standard (E A D G)


Intro:
G|-----------|------------| x3
D|-----------|------------|
A|-6---------|------3--1/-|
E|------4--1-|--4---------|
G|-----------|-----------|
D|-----------|-----------|
A|-6---------|------3--1-|
E|------4--1-|--4--------|


Verse 1:
G|-----------|-----------|-----------|----------|
D|-----------|-----------|-----------|-1----1---|
A|-------1---|-3-----1--1|-------1---|--------1-|
E|-4---4-----|-----------|-4---4-----|----------|

G|-----------|-----------|----------|----------|
D|-----------|-----------|----------|----------|
A|-------1---|-3---------|-5--------|----------|
E|-4---------|-------3--3|---------4|-3-------3|


Pre-Chorus:
G|-----------|-----------|-----------|----------|
D|-----------|-----------|-----------|-1----1---|
A|-------1---|-3-----1--1|-------1---|--------1-|
E|-4---4-----|-----------|-4---4-----|----------|

G|------------|-----------|------------|---------|
D|------------|-----------|------------|---------|
A|--------1---|-3-----1--1|----------3-|-1-------|
E|-4----4-----|-----------|-4---4-4----|---------|

Chorus:
G|----------|-----------|----------|-------------|
D|----------|-8---8-----|----------|-8---8--8-8-5|
A|-6---6----|----------5|-6---6----|-------------|
E|----------|-----------|----------|-------------|

G|----------|-----------|----------|-------------|
D|----------|-8---8-----|----------|-8---8--8-7-6|
A|-6---6----|----------5|-6---6----|-------------|
E|----------|-----------|----------|-------------|

G|----------|------------|----------|-----------|
D|----------|------------|----------|-----------|
A|-------2--|-3----------|-6---6----|-5---5-----|
E|---3------|----6-4----6|----------|---------4-|

G|----------|-----------|----------|
D|----------|-----------|----------|
A|-------2--|-3---------|-3--------|
E|---3------|----6-4----|-----6----|

Interlude:
G|-----------|------------|
D|-----------|------------|
A|-6---------|------3-----|
E|------4--1-|--4------6--|

G|-----------|------------| x2
D|-----------|------------|
A|-6---------|------3--1/-|
E|------4--1-|--4---------|

G|-----------|-----------|
D|-----------|-----------|
A|-6---------|------3--1-|
E|------4--1-|--4--------|


Verse 2:
G|-----------|-----------|-----------|----------|
D|-----------|-----------|-----------|-1----1---|
A|-------1---|-3-----1--1|-------1---|--------1-|
E|-4---4-----|-----------|-4---4-----|----------|

G|-----------|-----------|----------|-----------|
D|-----------|-----------|----------|-----------|
A|-------1---|-3---------|-5-------5|-----------|
E|-4---------|-------3--3|----------|-3------1/-|


Pre-Chorus:
G|-----------|-----------|-----------|--------3-|
D|-----------|-----------|-----------|-1----1---|
A|-------1---|-3-----1--1|-------1---|----------|
E|-4---4-----|-----------|-4---4-----|----------|

G|-1-----3---|-5-----3--3|-1----------|-----------|
D|-----------|-----------|------------|-----------|
A|-----------|-----------|----------3-|-1---------|
E|-----------|-----------|-----1-4----|--------1/-|


Chorus:
G|----------|----------|-------------|-----------|
D|----------|-8---8----|--------5-6-7|-8---8-----|
A|-6---6----|----------|-6---6-------|-----------|
E|----------|----------|-------------|---------8-|

G|----------|----------|-------------|-------------|
D|----------|-8---8----|--------5-6-7|-8---8--8-7-6|
A|-6---6----|----------|-6---6-------|-------------|
E|----------|----------|-------------|-------------|

G|----------|------------|----------|-----------|
D|----------|------------|----------|-----------|
A|-------2--|-3----------|-6---6----|-5---5-----|
E|---3------|----6-4----6|----------|---------4-|

G|----------|-----------|----------|----------------|---------|
D|----------|-----------|----------|----------------|---------|
A|-------2--|-3---------|-3--------|-6-6-6-6-6-6-6-6|-6-------|
E|---3------|----6-4----|-----6----|----------------|---------|


Solo:
G|-----------|-----------|-----------|----------|
D|-----------|-----------|-----------|-1----1---|
A|-------1---|-3-----1--1|-------1---|--------1-|
E|-4---4-----|-----------|-4---4-----|----------|

G|------------|------------|--------------|----------|
D|------------|------------|----------(3-4|-5)-------|
A|--------1---|-3-----2-3-4|-5-----5------|----------|
E|-4----4-----|------------|--------------|----------|


Pre-Chorus:
G|------------|-----------|-----------|----------|
D|------------|-----------|-----------|-1----1---|
A|-------1---1|-3-----1--1|-------1---|--------1-|
E|-4---4------|-----------|-4---4-----|----------|

G|-------------|-----------|------------|-----------|
D|-------------|-----------|------------|-----------|
A|--------1---1|-3-----1--1|----------3-|-1---------|
E|-4----4------|-----------|-4---4-4----|--------1/-|


Chorus:
G|----------|----------|-------------|----------|
D|----------|-8---8----|--------5-6-7|-8---8----|
A|-6---6----|----------|-6---6-------|----------|
E|----------|----------|-------------|----------|

G|----------|-----------|-------------|-------------|
D|----------|-8---8-----|--------5-6-7|-8---8--8-7-6|
A|-6---6----|----------5|-6---6-------|-------------|
E|----------|-----------|-------------|-------------|

G|----------|------------|----------|-----------|
D|----------|------------|----------|---------6-|
A|-------2--|-3----------|-6---6----|-5---5-----|
E|---3------|----6-4----6|----------|-----------|

G|----------|------------|----------|
D|----------|------------|----------|
A|-------2--|-3----------|-3--------|
E|---3------|----6-4----4|-----6----|


Outro:
G|----------|---------------| x4
D|----------|---------------|
A|-6--6-----|---------3--1/-|
E|-------4--|-1--1--1-------|

G|----------|---------------| x4
D|-------6--|---------10--8-|
A|-6--6-----|-8--8--8-------|
E|----------|---------------|


*****************************

| / Slide up
| \ Slide down
| (n-n) Fast

*****************************

Almost there ...

Sign in to get your own page with links to favourite songs and more. You are just one click away...

Login with Facebook Login with Google