Log in

One click and you are in

Login with Facebook Login with Google

Why sign up and log in

Guitar Tabs Explorer
Kari Jobe bass tabs for The blessing

Bass tabs

Tuning: Standard

✝ Verse 1:
G|------------------------------------------------------------------|
D|-----------------------------------\9-11-12-11-9-------9-\11-9----|
A|-----7---7H9-6-----7---7H9-6---\9-------------------11------------|
E|--7--------------7------------------------------------------------|


G|------------------------------------------------------------------|
D|--------------------------------9---------------------------------|
A|--7----6----9----7H9-------7\9-------9----------------------------|
E|------------------------7-----------------------------------------|

✝ Chorus 1:
G|------------------------------------------------------------------|
D|-----------------------------11-9----------------9----------------|
A|------7---7-\9----------9-9---------9 \11---9H11----7--7H9---9----|
E|--4-------------7--7---------------------------------------7------|

✝ Verse 2:
G|------------------------------------------------------------------|
D|----------------------\9-11-12-11-9------9------------------------|
A|----7---7H9-6-----\9-----------------11----7-7H9-6--9-------------|
E|-7-----------------------------------------------------7----------|

✝ Chorus 2:
G|------------------------------------------------------------------|
D|-------------------------------11-9---------------9---------------|
A|---7---7-\9-----------7-9-9---------9 \11---9H11----7--7H9---9----|
E|-4----------7--7-7H9---------------------------------------7------|

✝ Interlude:
G|-------------------------------------------11---------------------|
D|-----9-11----------9-----------------11-13----13-11-9-------------|
A|-11--------7--9-11---11-------7---9-------------------------------|
E|------------------------7-7-9---7---------------------------------|

✝ Bridge:
G|------------------------------------------------------------------|
D|---------9---------------9-----------------9--9-11----11-9--------|
A|-11-9-11---11--9--7-9-11---11--7-9----9-11---------9-------9------|
E|-----------------------------------7------------------------------|

G|------------------------------------------------------------------|
D|---------9---------------9-----------------9--9-11---------11-9---|
A|-11-9-11---11--9--7-9-11---11--7-9----9-11---------9-----9------9-|
E|-----------------------------------7-----------------7\9----------|

✝ Bridge 2:
G|------------------------------------------------------------------|
D|------------9-----------------------------------------------------|
A|-11-11-9-11----7-7--7-9-------9------9--11------------------------|
E|-------------------------7-7----9-11------------------------------|


G|------------------------------------------------------------------|
D|---------9------------------------13-11-9-------------------------|
A|-11*-9-11---11--7*---------7---9*---------9-----------------------|
E|--------------------7*-7-9---9------------------------------------|


G|------------------------------------------------------------------|
D|---------9--------------------------------------------------------|
A|-11*-9-11---11--7*------9*----------------------------------------|
E|--------------------7*--------------------------------------------|

✝ Outro:
G|------------------------------------------------------------------|
D|----------------9-------------------------------13-11-9H11--------|
A|--11-11-11-9-11---7------7-7-9----------7----9--------------9-----|
E|---------------------7-9-------7-7-7-9----7-----------------------|

G|------------------------------------------------------------------|
D|------------9-----------------------------------------------------|
A|-11-11-9-11---11-9-7-7-----7--7-9----------7---9-9------9---------|
E|-----------------------7-9---------7-7-7-9---9-----9-11-----------|

G|------------------------------------------------------------------|
D|------------9-----------------------------------------------------|
A|-11-11-9-11---11--7-7------7-7-7H9------------9-9---9-9--13-11-9--|
E|----------------------7-9-----------7-7-\7-7------\---------------|

G|------------------------------------------------------------------|
D|------------9-----------------------------------------------------|
A|-11-11-9-11---11--7-7------7-7-7-11-9-7------------9-9*---7-------|
E|----------------------7-9----------------7-7-\7-7-----------------|



| / slide up
| \ slide down
| h hammer-on
| p pull-off
| ~ vibrato
| + harmonic
| x Mute note
ⓘ Bass guitar tab for 'The Blessing' by Kari Jobe, a female indie artist.

Almost there ...

Sign in to get your own page with links to favourite songs and more. You are just one click away...

Login with Facebook Login with Google