Log in

One click and you are in

Login with Facebook Login with Google

Why sign up and log in

Guitar Tabs Explorer
Kari Jobe chords for Always enough

Guitar chords with lyrics

Capo 2


Intro:
---------5-----5------------------------5-----5-----------------
----5h7-----7--------5h7--5--------5h7-----7--------5h7--5------
------------------7----------7-------------------7----------7---
-0--------------------------------------------------------------
--------------------------------4-------------------------------
----------------------------------------------------------------

---------5-----5------------------------------------------------
----5h7-----7--------5h7--5-----------5h7--5-----------5h7--5---
------------------7----------7-----7----------7-----7---------7-
----------------------------------------------------------------
----------------------------------------------------------------
-7------------------------------7----------------7--------------

---------5-----5------------------------5-----5-----------------
----5h7-----7--------5h7--5--------5h7-----7--------5h7--5------
------------------7----------7-------------------7----------7---
-0--------------------------------------------------------------
--------------------------------4-------------------------------
----------------------------------------------------------------

---------5-----5------------------------------------------------
----5h7-----7--------5h7--5-----------5h7--5-----------5h7--5---
------------------7----------7-----7----------7-----7---------7-
----------------------------------------------------------------
----------------------------------------------------------------
-7------------------------------7----------------7--------------

-------0--------------------------------------------------------
-----3----------------------------------------------------------
---2------------------------------------------------------------
-0--------------------------------------------------------------
----------------------------------------------------------------
----------------------------------------------------------------



Verse I

A chord diagramD9D9         D9/C#                    Bm7(11)
I lift my hands to the highest of all
As I draw near
A chord diagramD9D9          D9/C#                  Bm7(11)
Surrender my life to Your promise, oh God
                 D7M/F#
There is no other


G6/9                   A chord diagramD9D9
I will find my life in You
                 Bm7(11)
You're always enough
        D7M/F#
Always enough
G6/9                    A chord diagramD9D9
Let the fullness of Your love
         Bm7(11)
Be all I need
       A chord diagramAsus2Asus2  G6/9 A chord diagramC9C9
All I need


Verse II

A chord diagramD9D9         D9/C#               Bm7(11)
consuma-me como um fogo ó Deus
Reina em mim
A chord diagramD9D9          D9/C#              Bm7(11)
Pois só tu Senhor pode me saciar
              D7M/F#
e não há outro


G6/9                   A chord diagramD9D9
Minha vida encontro em ti
      Bm7(11)         D7M/F#
Tu me satisfaz, me satisfaz
G6/9                    A chord diagramD9D9
Na plenitude do teu amor
            Bm7(11)        A chord diagramAsus2Asus2  D7M/F#
Seja minha porção, minha porção

G6/9                   A chord diagramD9D9
Minha vida encontro em ti
      Bm7(11)         D7M/F#
Tu me satisfaz, me satisfaz
G6/9                    A chord diagramD9D9
Na plenitude do teu amor
            Bm7(11)        A chord diagramAsus2Asus2  D7M/F# G6/9  C7M/G
Seja minha porção, minha porção

A chord diagramD9D9
Tu és minha porção...


Bridge

A chord diagramD9D9                    Dsus2(7M)
If I have You, I have everything
    G6/D              Gm6/D
But without You, I have nothing

A chord diagramD9D9                  Dsus2(7M)
If I have You, I have everything
  G6/D              Gm6/D
But without You, I have nothing

A chord diagramD9D9                  Dsus2(7M)
Se eu te tenho, tenho tudo
G6/D            Gm6/D
Mas sem Você, eu sou nada

A chord diagramD9D9                  Dsus2(7M)
Se eu te tenho, tenho tudo
G6/D            Gm6/D       A chord diagramD9D9  D7M/F#
Mas sem Você, eu sou nada


G6/9                   A chord diagramD9D9
Minha vida encontro em ti
      Bm7(11)         D7M/F#
Tu me satisfaz, me satisfaz
G6/9                    A chord diagramD9D9
Na plenitude do teu amor
            Bm7(11)        A chord diagramAsus2Asus2
Seja minha porção, minha porção


G6/9                   A chord diagramD9D9
Now will find my life in You
             Bm7(11)
You're always enough
        D9/C#
Always enough
G6/9                   A chord diagramD9D9
A chord diagramA augmentedA the fullness of Your love
         A chord diagramBm7Bm7
Your all I need
       A chord diagramAsus2Asus2      C7M/G
All I need

Almost there ...

Sign in to get your own page with links to favourite songs and more. You are just one click away...

Login with Facebook Login with Google