Log in

One click and you are in

Login with Facebook Login with Google

Why sign up and log in

Guitar Tabs Explorer
Joan Jett And The Blackhearts bass tabs for I love rock n roll (Ver. 2)

I Love Rock N Roll bass tab by Joan Jett And The Blackhearts (Ver. 2)

Joan Jett And The Blackhearts bass tabs for I love rock n roll (Ver. 2)

Bass tabs with lyrics

Standard tuning (EADG)

LEGEND:
r = rest
/ = slide up
() = sustained note
LEAD IN (Drums):

   2/4
G |-----------------|
D |-----------------|
A |-----------------|
E |-r---------------|
    1   &   2   &


INTRO:

G |---------------------------------|---------------------------------|
D |---------------------------------|---------------------------------|
A |-7---7---r-------7---7---r-------|---------------------------------|
E |---------------------------3---/-|-5---5---r-------7---7---r-3---/-|
    1   &   2   &   3   &   4   &     1   &   2   &   3   &   4   &

   7/4
G |---------------------------------------------------------|
D |---------------------------------------------------------|
A |-7---7---r-------7---7---r-------------------------------|
E |---------------------------3---/-5---5---r-------7---0---|
    1   &   2   &   3   &   4   &   5   &   6   &   7   &

   4/4
G |---------------------------------|---------------------------------|
D |---------------------------------|---------------------------------|
A |-7---7---r-----------------------|-7---7---r-------7-5-------------|
E |---------------------------------|---------------------7-\-5-3---/-|
    1   &   2   &   3   &   4   &     1   &   2   &   3   &   4   &


VERSE 1:

G |---------------------------------|---------------------------------|
D |---------------------------------|---------------------------------|
A |---------------------------------|-7---7---r-------7-5-------------|
E |-0---0---r-----------------------|---------------------7-\-5-3---/-|
    1   &   2   &   3   &   4   &     1   &   2   &   3   &   4   &

G |---------------------------------|---------------------------------|
D |---------------------------------|---------------------------------|
A |---------------------------------|-----------------7-5-------------|
E |-0---0---r-----------------------|-7---7---r-----------7-\-5-3---/-|
    1   &   2   &   3   &   4   &     1   &   2   &   3   &   4   &

   6/4                                               4/4
G |-------------------------------------------------|---------------------------------|
D |-------------------------------------------------|---------------------------------|
A |---------------------------------7---7---r-------|-0-------------------------------|
E |-5---5---r-------7---7---r-----------------------|---------------------------------|
    1   &   2   &   3   &   4   &   5   &   6   &     1   &   2   &   3   &   4   &


PRE-CHORUS:

G |---------------------------------|---------------------------------|
D |---------------------------------|---------------------------------|
A |(0)------------------------------|(0)------------------------------|
E |---------------------------------|---------------------------------|
    1   &   2   &   3   &   4   &     1   &   2   &   3   &   4   &

G |---------------------------------|---------------------------------|
D |---------------------------------|---------------------------------|
A |---------------------------------|---------------------------------|
E |-r-------------------------------|-7---7---7---7---7---7---7---7---|
    1   &   2   &   3   &   4   &     1   &   2   &   3   &   4   &


CHORUS 1:

G |---------------------------------|---------------------------------|
D |---------------------------------|---------------------------------|
A |-7---7---r-------7---7---r-------|---------------------------------|
E |---------------------------3---/-|-5---5---r-------7---7---r-------|
    1   &   2   &   3   &   4   &     1   &   2   &   3   &   4   &

   7/4
G |---------------------------------------------------------|
D |---------------------------------------------------------|
A |-7---7---r-------7---7---r-------------------------------|
E |---------------------------3---/-5---5---r-------7---0---|
    1   &   2   &   3   &   4   &   5   &   6   &   7   &

   4/4
G |---------------------------------|---------------------------------|
D |---------------------------------|---------------------------------|
A |-7---7---r-----------------------|-7---7---r-------7-5-------------|
E |---------------------------------|---------------------7-\-5-3---/-|
    1   &   2   &   3   &   4   &     1   &   2   &   3   &   4   &


VERSE 2:

G |---------------------------------|---------------------------------|
D |---------------------------------|---------------------------------|
A |---------------------------------|-7---7---r-------7-5-------------|
E |-0---0---r-----------------------|---------------------7-\-5-3---/-|
    1   &   2   &   3   &   4   &     1   &   2   &   3   &   4   &

G |---------------------------------|---------------------------------|
D |---------------------------------|---------------------------------|
A |---------------------------------|-----------------7-5-------------|
E |-0---0---r-----------------------|-7---7---r-----------7-\-5-3---/-|
    1   &   2   &   3   &   4   &     1   &   2   &   3   &   4   &

   6/4                                               4/4
G |-------------------------------------------------|---------------------------------|
D |-------------------------------------------------|---------------------------------|
A |---------------------------------7---7---r-------|-0-------------------------------|
E |-5---5---r-------7---7---r-----------------------|---------------------------------|
    1   &   2   &   3   &   4   &   5   &   6   &     1   &   2   &   3   &   4   &


PRE-CHORUS:

G |---------------------------------|---------------------------------|
D |---------------------------------|---------------------------------|
A |(0)------------------------------|-r-------------------------------|
E |---------------------------------|---------------------------------|
    1   &   2   &   3   &   4   &     1   &   2   &   3   &   4   &

G |---------------------------------|---------------------------------|
D |---------------------------------|---------------------------------|
A |---------------------------------|---------------------------------|
E |-r-------------------------------|-7---7---7---7---7---7---7---7---|
    1   &   2   &   3   &   4   &     1   &   2   &   3   &   4   &


CHORUS 2:

G |---------------------------------|---------------------------------|
D |---------------------------------|---------------------------------|
A |-7---7---r-------7---7---r-------|---------------------------------|
E |---------------------------3---/-|-5---5---r-------7---7---r-------|
    1   &   2   &   3   &   4   &     1   &   2   &   3   &   4   &

   7/4
G |---------------------------------------------------------|
D |---------------------------------------------------------|
A |-7---7---r-------7---7---r-------------------------------|
E |---------------------------3---/-5---5---r-------7---0---|
    1   &   2   &   3   &   4   &   5   &   6   &   7   &

   4/4
G |---------------------------------|---------------------------------|
D |---------------------------------|---------------------------------|
A |-7---7---r-----------------------|-7---7---r-------7-5-------------|
E |---------------------------------|---------------------7-\-5-3---/-|
    1   &   2   &   3   &   4   &     1   &   2   &   3   &   4   &


GUITAR SOLO:

G |---------------------------------|---------------------------------|
D |---------------------------------|---------------------------------|
A |---------------------------------|-7---7---r-------7-5-------------|
E |-0---0---r-----------------------|---------------------7-\-5-3---/-|
    1   &   2   &   3   &   4   &     1   &   2   &   3   &   4   &

G |---------------------------------|---------------------------------|
D |---------------------------------|---------------------------------|
A |---------------------------------|-----------------7-5-------------|
E |-0---0---r-----------------------|-7---7---r-----------7-\-5-3---/-|
    1   &   2   &   3   &   4   &     1   &   2   &   3   &   4   &

   6/4                                               4/4
G |-------------------------------------------------|---------------------------------|
D |-------------------------------------------------|---------------------------------|
A |---------------------------------7---7---r-------|-0-------------------------------|
E |-5---5---r-------7---7---r-----------------------|---------------------------------|
    1   &   2   &   3   &   4   &   5   &   6   &     1   &   2   &   3   &   4   &


PRE-CHORUS:

G |---------------------------------|---------------------------------|
D |---------------------------------|---------------------------------|
A |(0)------------------------------|(0)------------------------------|
E |---------------------------------|---------------------------------|
    1   &   2   &   3   &   4   &     1   &   2   &   3   &   4   &

G |---------------------------------|---------------------------------|
D |---------------------------------|---------------------------------|
A |---------------------------------|---------------------------------|
E |-r-------------------------------|-r-------------------------------|
    1   &   2   &   3   &   4   &     1   &   2   &   3   &   4   &


CHORUS 3:
              (Rest x4)
G |---------------------------------|
D |---------------------------------|
A |---------------------------------|
E |-r-------------------------------|
    1   &   2   &   3   &   4   &


JAM (x3):
   4/4
G |---------------------------------|---------------------------------|
D |---------------------------------|---------------------------------|
A |-7---7---r-------7---7---r-------|---------------------------------|
E |---------------------------3---/-|-5---5---r-------7---7---r-------|
    1   &   2   &   3   &   4   &     1   &   2   &   3   &   4   &

   7/4
G |---------------------------------------------------------|
D |---------------------------------------------------------|
A |-7---7---r-------7---7---r-------------------------------|
E |---------------------------3---/-5---5---r-------7---0---|
    1   &   2   &   3   &   4   &   5   &   6   &   7   &


OUTRO:
   4/4
G |---------------------------------|---------------------------------|
D |---------------------------------|---------------------------------|
A |-7---7---r-------7---7---r-------|---------------------------------|
E |---------------------------3---/-|-5---5---r-------7---7---r-------|
    1   &   2   &   3   &   4   &     1   &   2   &   3   &   4   &

   7/4                                                       4/4
G |---------------------------------------------------------|---------------------------------|
D |---------------------------------------------------------|---------------------------------|
A |-7---7---r-------7---7---r-------------------------------|---------------------------------|
E |---------------------------3---/-5---5---r-------7---X---|-0-------r-----------------------|
    1   &   2   &   3   &   4   &   5   &   6   &   7   &     1   &   2   &   3   &   4   &

Other versions of I Love Rock N Roll

I love rock n rollBass tabs

Almost there ...

Sign in to get your own page with links to favourite songs and more. You are just one click away...

Login with Facebook Login with Google