Search tabs and chords

Search for song, artist or band

Log in

One click and you are in

Login with Facebook Login with Google

Why sign up and log in

Guitar Tabs Explorer
Jett Rebel guitar tabs for Amy

Guitar tabs with lyrics

Verse:
"Let's skip the small talk"
(played with fingers)
e|-----------|-----------|-------------|------------|
B|-6--x-6--x-|-6--x-6--x-|-10--x-10--x-|-10--x-10-x-|
G|-7--x-7--x-|-7--x-7--x-|-9---x-9---x-|-8---x-8--x-|
D|-7--x-7--x-|-7--x-7--x-|-10--x-10--x-|-10--x-10-x-|
A|-----------|-----------|-8---x-8---x-|-8---x-8--x-|
E|-6--x-6--x-|-6--x-6--x-|-------------|------------|
    Bbmaj7      Bbmaj7        Fmaj7 chord diagramFmaj7Fmaj7          F7 chord diagramF7F7

e|-----------|-----------|----------|--------|
B|-6--x-6--x-|-6--x-6--x-|-10-10--x-|-----10-|
G|-7--x-7--x-|-7--x-7--x-|-9--9---x-|----8---|
D|-7--x-7--x-|-7--x-7--x-|-10-10--x-|--10----|
A|-----------|-----------|-8--8---x-|-8------|
E|-6--x-6--x-|-6--x-6--x-|----------|--------|
    Bbmaj7      Bbmaj7     Fmaj7 chord diagramFmaj7Fmaj7        F7 chord diagramF7F7    (let ring and take out your pick)

Pre-chorus:
"Can you imagine us flying"
(rest of the song played with pick)
e|---------|---------|---------|----8------------------|
B|-------1-|-------1-|-------3-|-11---8/10-8-----------|
G|-----3---|-----2---|-----2---|-----------------------|
D|---3-----|---3-----|---3-----|-------------5h8-5-----|
A|---------|-3-------|-1-------|-------------------7-5-|
E|-3-------|---------|---------|-----------------------|
   Gm11 chord diagramGm11Gm11        F chord diagramFF/C chord diagramCC      Bbmaj7

Chorus:
"Amy, amy, so fine, so fine"
e|-----------|------|-----------|--------------------|
B|-----------|------|-----------|--------------------|
G|-----------|------|-----------|--------------------|
D|-----------|------|-----------|----------5h8-5-----|
A|-----------|------|-------3-4-|-5---5-3--------7-5-|
E|-1--1--3-4-|-5--5-|-6--6------|---5----------------|
       F chord diagramFF         Am chord diagramAmAm     Bb chord diagramBbBb         Dm chord diagramDmDm   C chord diagramCC

e|-----------|------|-----------|----------|-------|---------|
B|-----------|------|-----------|----------|-------|---------|
G|-----------|------|-----------|----------|-------|---------|
D|-----------|------|-----------|----------|-------|---------|
A|-----------|------|-------3-4-|-5---5-3--|--5--5-|--3----3-|
E|-1--1--3-4-|-5--5-|-6--6------|---5------|-------|---------|
       F chord diagramFF         Am chord diagramAmAm     Bb chord diagramBbBb         Dm chord diagramDmDm   C chord diagramCC     Dm7 chord diagramDm7Dm7    Csus4 chord diagramCsus4Csus4 C chord diagramCC

[Verse}
"Your body is trembling"
e|-----------|-----------|-------------|------------|
B|-6--x-6--x-|-6--x-6--x-|-10--x-10--x-|-10--x-10-8-|
G|-7--x-7--x-|-7--x-7--x-|-9---x-9---x-|-8---x-8--8-|
D|-7--x-7--x-|-7--x-7--x-|-10--x-10--x-|-10--x-10-8-|
A|-----------|-----------|-8---x-8---x-|-8---x-8----|
E|-6--x-6--x-|-6--x-6--x-|-------------|----------8-|
    Bbmaj7      Bbmaj7        Fmaj7 chord diagramFmaj7Fmaj7          F7 chord diagramF7F7   Cm7 chord diagramCm7Cm7

e|-----------|-------------|----------|--------|
B|-6--x-6--x-|-5/6--x-6--x-|-10-10--x-|-----10-|
G|-7--x-7--x-|-6/7--x-7--x-|-9--9---x-|----8---|
D|-7--x-7--x-|-6/7--x-7--x-|-10-10--x-|--10----|
A|-----------|-------------|-8--8---x-|-8------|
E|-6--x-6--x-|-5/6--x-6--x-|----------|--------|
    Bbmaj7      Bbmaj7        Fmaj7 chord diagramFmaj7Fmaj7       F7 chord diagramF7F7

Pre-chorus:
"Huh, not much of a virgin honey, I have to admit"
Guitar 1:
e|-----------|-----------|-----------|----8------------------|
B|-------1---|-------1---|-------3---|-11---8/10-8-----------|
G|-----3-----|-----2-----|-----2-----|-----------------------|
D|---3-------|---3-------|---3-------|-------------5h7-5-----|
A|-----------|-3---------|-1---------|-------------------8-5-|
E|-3---------|-----------|-----------|-----------------------|
   Gm11 chord diagramGm11Gm11          F chord diagramFF/C chord diagramCC       Bbmaj7

Guitar 2:
e|-----------|-----------|-----------|
B|-----6-8-6-|-----6-8-6-|-----6-8-6-|
G|-5-7-------|-5-7-------|-5-7-------|
D|-----------|-----------|-----------|
A|-----------|-----------|-----------|
E|-----------|-----------|-----------|

Chorus:
"Amy, amy, so fine, so fine"
e|-----------|------|-----------|--------------------|
B|-----------|------|-----------|--------------------|
G|-----------|------|-----------|--------------------|
D|-----------|------|-----------|----------5h7-5-----|
A|-----------|------|-------3-4-|-5---5-3--------8-5-|
E|-1--1--3-4-|-5--5-|-6--6------|---5----------------|
       F chord diagramFF         Am chord diagramAmAm     Bb chord diagramBbBb         Dm chord diagramDmDm   C chord diagramCC

e|-----------|------|-----------|----------|------|------|
B|-----------|------|-----------|----------|------|------|
G|-----------|------|-----------|----------|-9--9-|-8--8-|
D|-----------|------|-----------|----------|------|------|
A|-----------|------|-------3-4-|-5---5-3--|------|------|
E|-1--1--3-4-|-5--5-|-6--6------|---5------|------|------|
       F chord diagramFF         Am chord diagramAmAm     Bb chord diagramBbBb         Dm chord diagramDmDm   C chord diagramCC     Dm7 chord diagramDm7Dm7     Cm7 chord diagramCm7Cm7

Solo:

e|------------------|-----------------|-------------------------|--------------------------|
B|------------------|-----------------|-------------10-13-11-10-|----10--------------------|
G|------------------|-----------------|----------10-------------|-12----10-12--12b14br-p10-|
D|------------------|-----------------|-------10----------------|--------------------------|
A|------8-10--10/12-|----12b13br-10\8-|-10/12-------------------|--------------------------|
E|-8-10-------------|-----------------|-------------------------|--------------------------|
       Bbmaj7              Bbmaj7               Fmaj7 chord diagramFmaj7Fmaj7                      F7 chord diagramF7F7

e|------------------------|--------------------|------------------------|
B|------------------------|--------------------|------------------------|
G|-------10-12--12b14br14-|---10-9-7-----------|------------------------|
D|-10-12------------------|----------10-7------|------------------------|
A|------------------------|---------------10-8-|-7-8------8-10-10/12----|
E|------------------------|--------------------|-----8-10------------11-|
          Bbmaj7                  Bbmaj7            Fmaj7 chord diagramFmaj7Fmaj7            Cm7 chord diagramCm7Cm7

Bridge:
"Oooh, won't you let me be your lover"
e|-----------|-----------|-----------|-----------|
B|-----------|-----------|-----------|-----------|
G|-----------|-----------|-----------|-----------|
D|-----------|-----------|-----------|-----------|
A|-------4-5-|-6--6------|-------6-7-|-8--8------|
E|-6--6------|-------6-7-|-8--8------|-------4-5-|
   Bbm7          Eb chord diagramEbEb          Cm7 chord diagramCm7Cm7         Fm7 chord diagramFm7Fm7

e|-----------|-----------|-----------|-----------|
B|-----------|-----------|-----------|-----------|
G|-----------|-----------|-----------|-----------|
D|-----------|-----------|-----------|-----------|
A|-------4-5-|-6--6------|-------6-7-|-8--8------|
E|-6--6------|-------6-7-|-8--8------|-------4-5-|
   Bbm7          Eb chord diagramEbEb          Cm7 chord diagramCm7Cm7         Fm7 chord diagramFm7Fm7

e|-----------|-----------|-----------|-----------|
B|-----------|-----------|-----------|-----------|
G|-----------|-----------|-----------|-----------|
D|-----------|-----------|-----------|-----------|
A|-------4-5-|-6--6------|-------6-7-|-8--8------|
E|-6--6------|-------6-7-|-8--8------|-------4-5-|
   Bbm7          Eb chord diagramEbEb          Cm7 chord diagramCm7Cm7         Fm7 chord diagramFm7Fm7

e|-----------|-----------|---------|
B|-----------|-----------|---------|
G|-----------|-----------|---------|
D|-----------|-----------|---------|
A|-------4-5-|-6--6------|---------|
E|-6--6------|-------6-7-|---------|
   Bbm7          Eb chord diagramEbEb        Bb chord diagramBbBb/C chord diagramCC  C chord diagramCC

[Chorus}
"Ooooh / this is our night"
4 bars just piano (F chord diagramFF  Am chord diagramAmAm  Bb chord diagramBbBb  Dm chord diagramDmDm    C chord diagramCC)
                               e|-----------|
                               B|-----------|
                               G|-5h7-5-----|
                               D|-------8-5-|
                               A|-----------|
                               E|-----------|

e|-----------|------|-----------|----------|-------|---------|
B|-----------|------|-----------|----------|-------|---------|
G|-----------|------|-----------|----------|-------|---------|
D|-----------|------|-----------|----------|-------|---------|
A|-----------|------|-------3-4-|-5---5-3--|--5--5-|--3----3-|
E|-1--1--3-4-|-5--5-|-6--6------|---5------|-------|---------|
       F chord diagramFF         Am chord diagramAmAm     Bb chord diagramBbBb         Dm chord diagramDmDm   C chord diagramCC     Dm7 chord diagramDm7Dm7    Csus4 chord diagramCsus4Csus4 C chord diagramCC

Pre-chorus:
"I'm sure you're an angel"
e|---------|---------|---------|--------------------|
B|-------1-|-------1-|-------3-|--------------------|
G|-----3---|-----2---|-----2---|-12b14br-p10--12b14-|
D|---3-----|---3-----|---3-----|--------------------|
A|---------|-3-------|-1-------|--------------------|
E|-3-------|---------|---------|--------------------|
   Gm11 chord diagramGm11Gm11        F chord diagramFF/C chord diagramCC      Bbmaj7

Chorus:
"Amy, amy, so fine, so fine"
e|-----------|------|-----------|--------------------|
B|-----------|------|-----------|--------------------|
G|-----------|------|-----------|--------------------|
D|-----------|------|-----------|----------5h7-5-----|
A|-----------|------|-------3-4-|-5---5-3--------8-5-|
E|-1--1--3-4-|-5--5-|-6--6------|---5----------------|
       F chord diagramFF         Am chord diagramAmAm     Bb chord diagramBbBb         Dm chord diagramDmDm   C chord diagramCC

e|-----------|------|-----------|---------------------|
B|-----------|------|-----------|---------------------|
G|-----------|------|-----------|---------------------|
D|-----------|----7~|-----------|----------7h9-7------|
A|-----------|------|-------3-4-|-5---5-5--------10-7-|
E|-1--1--3-4-|-5----|-6--6------|---5-----------------|
       F chord diagramFF         Am chord diagramAmAm     Bb chord diagramBbBb           D chord diagramDD

e|------|------|-----------|---------------------|
B|------|------|-----------|---------------------|
G|------|------|-----------|---------------------|
D|------|------|-----------|----------7h9-7------|
A|------|------|-------5-6-|-7---7-5--------10-7-|
E|-3--3-|-2--2-|-1--1------|---7-----------------|
    G chord diagramGG     D chord diagramDD/F# chord diagramF#F#      F chord diagramFF         Em chord diagramEmEm   D chord diagramDD

e|-----------|------|-----------|---------|------|---------|---|
B|-----------|------|-----------|---------|------|---------|---|
G|-----------|------|-----------|---------|------|---------|---|
D|-----------|------|-----------|---------|------|---------|---|
A|-----------|------|-------5-6-|-7---7-5-|-7--7-|-5-----5-|-3-|
E|-3--3--4-5-|-7--7-|-8--8------|---7-----|------|---------|---|
     G chord diagramGG          Bm chord diagramBmBm      Cmaj chord diagramCmajCmaj      Em chord diagramEmEm    D chord diagramDD   Em7 chord diagramEm7Em7    Dsus4 chord diagramDsus4Dsus4 D chord diagramDD   Cmaj7 chord diagramCmaj7Cmaj7

Other versions of Amy

AmyChords

Almost there ...

Sign in to get your own page with links to favourite songs and more. You are just one click away...

Login with Facebook Login with Google