Log in

One click and you are in

Login with Facebook Login with Google

Why sign up and log in

Guitar Tabs Explorer
Jet tabs for Seventeen acoustic

Guitar tabs with lyrics

This is the tab for Seventeen - Acoustic by Jet.
The 4:20min version with female vocals that you can hear only on Spotify,
in the "Seventeen" sigle realeased in 2010.


Intro:

e|---------x-------------x--|
A chord diagramBB|---------x-------------x--|
A chord diagramG+G|--9--11--x--2-2-2-2-2--x--|
A chord diagramD MajorD|--9--11--x--2-2-2-2-2--x--| x4
A chord diagramA augmentedA|--7--9---x--0-0-0-0-0--x--|
A chord diagramE MajorE|--0--0---x--0-0-0-0-0--x--|
Verse:

"I get back home at a quarter to four"
e|---------x-------------x--|
A chord diagramBB|---------x-------------x--|
A chord diagramG+G|--9--11--x--2-2-2-2-2--x--|
A chord diagramD MajorD|--9--11--x--2-2-2-2-2--x--| x7
A chord diagramA augmentedA|--7--9---x--0-0-0-0-0--x--|
A chord diagramE MajorE|--0--0---x--0-0-0-0-0--x--|

Brigde:

"Don't care what faithless people SAY"
                                   A chord diagramG+G             A chord diagramA augmentedA
"Should I care"
           A chord diagramG+G         A chord diagramA augmentedA


Pre-Chorus:

e|-----------------x--------|
A chord diagramBB|-----------------x--------|
A chord diagramG+G|--6-----2--------x--------|
A chord diagramD MajorD|--6--2--2--------x--------| x2
A chord diagramA augmentedA|--4--2--0--------x--------|
A chord diagramE MajorE|--0--0--0--------x--------|

Chorus:

e|--------------------x-----|
A chord diagramBB|--------------------x-----|
A chord diagramG+G|--6-----2-2-2-2-----x-----|
A chord diagramD MajorD|--6--2--2-2-2-2-----x-----| x3
A chord diagramA augmentedA|--4--2--0-0-0-2-----x-----|
A chord diagramE MajorE|--0--0--0-0-0-0-----x-----|

e|--------------------x-----|
A chord diagramBB|--------------------x-----|
A chord diagramG+G|--6--9--2-2-2-2-----x-----|
A chord diagramD MajorD|--6--9--2-2-2-2-----x-----| Last last
A chord diagramA augmentedA|--4--7--0-0-0-2-----x-----|
A chord diagramE MajorE|--0--0--0-0-0-0-----x-----|


Intro 2:

e|---------x-------------x--|
A chord diagramBB|---------x-------------x--|
A chord diagramG+G|--9--11--x--2-2-2-2-2--x--|
A chord diagramD MajorD|--9--11--x--2-2-2-2-2--x--| x4
A chord diagramA augmentedA|--7--9---x--0-0-0-0-0--x--|
A chord diagramE MajorE|--0--0---x--0-0-0-0-0--x--|


Verse 2:

"I get back home at a quarter to four"
e|---------x-------------x--|
A chord diagramBB|---------x-------------x--|
A chord diagramG+G|--9--11--x--2-2-2-2-2--x--|
A chord diagramD MajorD|--9--11--x--2-2-2-2-2--x--| x7
A chord diagramA augmentedA|--7--9---x--0-0-0-0-0--x--|
A chord diagramE MajorE|--0--0---x--0-0-0-0-0--x--|

Brigde 2:

"Don't care what faithless people SAY"
                                   A chord diagramG+G             A chord diagramA augmentedA
"Should I care"
           A chord diagramG+G         A chord diagramA augmentedA


Pre-Chorus 2:

e|-----------------x--------|
A chord diagramBB|-----------------x--------|
A chord diagramG+G|--6-----2--------x--------|
A chord diagramD MajorD|--6--2--2--------x--------| x2
A chord diagramA augmentedA|--4--2--0--------x--------|
A chord diagramE MajorE|--0--0--0--------x--------|


Chorus 2:

e|--------------------x-----|
A chord diagramBB|--------------------x-----|
A chord diagramG+G|--6-----2-2-2-2-----x-----|
A chord diagramD MajorD|--6--2--2-2-2-2-----x-----| x3
A chord diagramA augmentedA|--4--2--0-0-0-2-----x-----|
A chord diagramE MajorE|--0--0--0-0-0-0-----x-----|

e|--------------------x-----|
A chord diagramBB|--------------------x-----|
A chord diagramG+G|--6--9--2-2-2-2-----x-----|
A chord diagramD MajorD|--6--9--2-2-2-2-----x-----| Last last
A chord diagramA augmentedA|--4--7--0-0-0-2-----x-----|
A chord diagramE MajorE|--0--0--0-0-0-0-----x-----|

----------------

When the dead notes comes in, just strum up and down with finger 1.
Listen to the record to get the right rhythm.

----------------

You can also play this in bridges if you are in duo,
with one of the guitars keeps playing chords

e|------9---------9---------9---------9-----|
b|---10---10---10---10---10---10---10---10--|
g|-7---------7---------7---------7----------|
d|------------------------------------------|
a|------------------------------------------|
A chord diagramE MajorE|------------------------------------------|

e|------10-9-------10-9------10-9-------10-9-------|
b|---10------10-7-------10-7-------10-7-------10---|
g|-7-----------------------------------------------|   (2 times)
d|-------------------------------------------------|
a|-------------------------------------------------|
A chord diagramE MajorE|-------------------------------------------------|


e|-----9-10-9----9-10-9----9-10-9---9----9----8----9----9----9----8br--7-|
b|--10--------10--------10------------10---10---10---10---10---10--------|
g|-----------------------------------------------------------------------|
d|-----------------------------------------------------------------------|
a|-----------------------------------------------------------------------|
A chord diagramE MajorE|-----------------------------------------------------------------------|

*tab by Angus_Young1*


************************************

| x   Dead note
| br  Bend release

Other versions of Seventeen Acoustic

SeventeenTabs
Seventeen (Ver. 2)Tabs

Almost there ...

Sign in to get your own page with links to favourite songs and more. You are just one click away...

Login with Facebook Login with Google