Log in

One click and you are in

Login with Facebook Login with Google

Why sign up and log in

Guitar Tabs Explorer
Jet tabs for Put your money where your mouth is

Guitar tabs

Put Your Money Where Your Mouth Is-Jet

Intro
e|-----------------------------------------------
b|-----------------------------------------------
g|-----------------------------------------------
d|-----------------------------------------------
a|-2-2-2-5-0-0-0-----0-0-0-2-5-0-2---------------
e|-----------------0-----------------------------

 verse
e|-----------------------------------------------
b|-2-2-----2-2-----2-2-----2-2-------------------
g|-2-2-4---2-2-----2-2-1---2-2-4-----------------
d|-2-2-4---2-2-4---2-2-2---2-2-4-----------------
a|-0-0-2---0-0-4---0-0-2---0-0-2---5-5-2-5-------
e|-------------2-------0-------------------------

Repeat Intro...

Chourse x2
e|---------------------1-------------------------
b|---2-----------------3-2-----------------------
g|-4-2-1-1-1-1-1-1-1-1-2-2-4-4-4-4-4-4-4-4-------
d|-4-2-2-2-2-2-2-2-2-2-0-2-4-4-4-4-4-4-4-4-------
a|-2-0-2-2-2-2-2-2-2-2---0-2-2-2-2-2-2-2-2-------
e|-----0-0-0-0-0-0-0-0---------------------------

repeat verse...
repeat chourse x2...
repeat intro...
repeat chourse x5...

By:Adam Delaney

Other versions of Put Your Money Where Your Mouth Is

Put your money where your mouth is soloTabs

Almost there ...

Sign in to get your own page with links to favourite songs and more. You are just one click away...

Login with Facebook Login with Google