Log in

One click and you are in

Login with Facebook Login with Google

Why sign up and log in

Guitar Tabs Explorer
Jet tabs for Put your money where your mouth is solo

Put Your Money Where Your Mouth Is Solo tab by Jet

Jet tabs for Put your money where your mouth is solo

Guitar tabs

Put Your Money Where Your Mouth Is Solo

^ = bend up
> = slide down

e------------------------------7-9^-7------------
b----7---------------------7-9--------12--10--9--
g-6^---6-4-6-4-------4-6>8------------14^-12^-11^
d----------------4-6-----------------------------
a--------------6---------------------------------
e------------------------------------------------

e-7-7----7-10-7----7-----------------------------
b-7-7-10--------10---10--------------------------
g------------------------------------------------
d------------------------------------------------
a------------------------------------------------
e------------------------------------------------


By: Adam Delaney
contact at rockna14@hotmail.com

Other versions of Put Your Money Where Your Mouth Is Solo

Put your money where your mouth isTabs

Almost there ...

Sign in to get your own page with links to favourite songs and more. You are just one click away...

Login with Facebook Login with Google