Log in

One click and you are in

Login with Facebook Login with Google

Why sign up and log in

Guitar Tabs Explorer
Jet bass tabs for Move on

Bass tabs

Bass tabs made by Gaspard Jeanneret .If you have some
suggestions or notes ,tell me at :
taxijaune@hotmail.com


Intro: No bass

End of the intro :
-----------------------------------------------
-----------------------------------------------
--------------3--------------------------------
-3---------------------------------------------
Verse:
----------------------5-5----------------------
--------5-5------------------------------------
---------------3-------------------------------
--3--------------------------3-----------------


Chorus 1ST TIME :
-----------------------------------------------
-----------------------------------------------
--5------3-------------------------------------
-------------5----3----------------------------


Chorus 2ND TIME :
-----------------------------------------------
--5--------------------------------------------
-------5------3--------------------------------
-------------------5-----3---------------------


Outro:
-----------------------------------------------
-----------------------------------------------
---------3-------------------------------------
---3----------3----------3---------------------

Enjoy !!!!!!!

Almost there ...

Sign in to get your own page with links to favourite songs and more. You are just one click away...

Login with Facebook Login with Google