Log in

One click and you are in

Login with Facebook Login with Google

Why sign up and log in

Guitar Tabs Explorer
Jet bass tabs for La di da

Bass tabs

Intro:
G|-------|----------------------|
D|-------|--15-14-12-12-15-14-12|
A|-0--12-|----------------------|
E|-------|----------------------|

G|---------------|
D|---------------| x4
A|-0-0-3-5-7-----|
E|---------------|
Verse:
G|-----------------------------------------------------------------------------------| x2
D|-------------------2-2-22---2-2-22-2-0-0-00-03-3-(5)55--7--7--0-5-7--7-7---0-5-7---|
A|-0-0-00-00-0-0-00-------------------------------------0-----0------0----0----------|
E|------------------0-------00-------------------------------------------------------|
 {~~~~~~The bracketed 5 means the 2nd time you play this part theres an extra 5~~~~~~)


Chorus:
G|------------------------------------------------------------|
D|-------------------------------------0-0-00-0--2--0--3--2--0|
A|-3-3-33-3----------0-0-00-0---------------------------------|
E|----------3-3-33-3----------0-0-00-0------------------------|


Verse:
G|-----------------------------------------------------------------------------------| x2
D|-------------------2-2-22---2-2-22-2-0-0-00-03-3-(5)55---7-7--0-5-7--7-7--0-5-7----|
A|-0-0-00-00-0-0-00---------------------------------------0---0------0----0----------|
E|------------------0-------00-------------------------------------------------------|


Chorus:
(this ones different than the first)
G|------------------------------------------------------------------------|
D|------------------------------2-22-2-0-0-00-0-2-2-22-2--------3-5-5-55-5|
A|-3-3-33-3----------0-0-00-0----------------------------3-3-33-----------|
E|----------3-3-33-3----------0-------------------------------------------|

G|--------5----------2-2-22-0---------------------------------------------------------|
D|----------5-5-55-5----------2-2-22-2-0-0-00-0--2--0----------77--0-5-7---77---0-5-7-|
A|-3-3-33----------------------------------------------3--2--0---0-------0----0-------|
E|------------------------------------------------------------------------------------|

Verse:
G|------------------------------------------------------------------------------------| x2
D|-------------------2-2-22---2-2-22-2-0-0-00-03-3-(5)55---7-7--0-5-7--7-7--0-5-7-----|
A|-0-0-00-00-0-0-00---------------------------------------0---0-------0---0-----------|
E|------------------0-------00--------------------------------------------------------|

During Guitar Solo:
(1:41 - 1:48)
G|--------------------------------------------------------------------------------|
D|-------------------------------3-333-333-333-333-333-333-333-5-77777777---------|
A|-5-555-555-555-555-555-555-555--------------------------------------------------|
E|--------------------------------------------------------------------------------|


Intro:
G|-------|--------------------|
D|-------|--------------------|
A|-0--12-|--20-19-17-15-17-15-|
E|-------|--------------------|


Verse:
G|-----------------------------------------------------------------------------------| x1
D|-------------------2-2-22---2-2-22-2-0-0-00-03-3--5-55---7-7--0-5-7--7-7--0-5-7----|
A|-0-0-00-00-0-0-00---------------------------------------0---0------0----0----------|
E|------------------0-------00-------------------------------------------------------|


Chorus and Outro:
G|------------------------------------------------------------------------|
D|------------------------------2-22-2-0-0-00-0-2-2-22-2--------3-5-5-55-5|
A|-3-3-33-3----------0-0-00-0----------------------------3-3-33-----------|
E|----------3-3-33-3----------0-------------------------------------------|

G|--------5----------2-2-22-0---------------------------------------------------------|
D|----------5-5-55-5----------2-2-22-2-0-0-00-0--2--0----------77--0-5-7---77---0-5-7-|
A|-3-3-33----------------------------------------------3--2--0---0-------0----0-------|
E|------------------------------------------------------------------------------------|


************************************

| (n) Ghost note
| ~  Vibrato

Almost there ...

Sign in to get your own page with links to favourite songs and more. You are just one click away...

Login with Facebook Login with Google