Log in

One click and you are in

Login with Facebook Login with Google

Why sign up and log in

Guitar Tabs Explorer
Jet tabs for Kia

Guitar tabs

Intro

I'm looking for introduction, if you can help me
riff 1 ( during « uhuhuhuhuh »)
------------------------|
------------------------|
------------------------|
------------------------|        X 4
-----5--5---5-----------|
--7-------7---7-5-3-0---|


riff 2


note : A chord diagramE MajorE A chord diagramG+G / A chord diagramE MajorE A chord diagramBB / A chord diagramE MajorE G/ A chord diagramE MajorE A chord diagramBB



Pre-chorus
---------------------------------------------------|
--------------------------12--------12-------------|
-9-9-7—7-12-12-7--7-9-----14b--X 4--12-------------|
-9-9-7-7-12-12-7--7-9------------------------------|
---------------------------------------------------|
---------------------------------------------------|


Chorus1
---------------------------------------------------------|
---------------------------------------------------------|
---------------------------------------77----------------|
----- 5-----------5------------5-------77-7-55-2---------|
-/7-5---5-7---5-7---5-7---/7-5---5-7---55-7-55-2---------|
------------------------------------------5-33-0---------|


Intro


riff 1


Pre-chorus


chorus 2
|---------------------------------------------------------------------|
|---------------------------------------------------------------------|
|---------------------------------------------------------------------|
|-------5-----------5------------------5-----------5------------------|
|--/7-5---5-7---5-7---5-7---X 3---/7-5---5-7---5-7---7-5---5----------|
|--------------------------------------------------------7---7-5-3-0--|


solo ( chord: A chord diagramG+G during the solo)


pre-chorus
---------------------------------------------------------------------------|
------------------------------------------------------------12---------12--|
--9-9-7--7-12-12-7--7-9~~---12-12-7--7-9~---12-12-7--7-9~---14b---X 4--12--|
--9-9-7--7-12-12-7--7-9~~---12-12-7--7-9~---12-12-7--7-9~------------------|
---------------------------------------------------------------------------|
---------------------------------------------------------------------------|

Last chorus
------------------------------------------------------------------|
------------------------------------------------------------------|
------------------------------------------------------------------|
-------5-----------5------------------------5-----------5---------|
--/7-5---5-7---5-7---7-5---5-----------/7-5---5-7---5-7---5-7-----|
-------------------------7---7-5-3-0------------------------------|


----------------------------------------------------------------------|
----------------------------------------------------------------------|
----------------------------------------------------------------------|
-------5-----------5------------------------5------------5--7--5--2---|
--/7-5---5-7---5-7---7-5---5-----------/7-5---5-7---5-7--5--7--5--2---|
-------------------------7---7-5-3-0---------------------3--5--3--0---|


This tab is not complete, I hope there is other guitarist who like this song and

Almost there ...

Sign in to get your own page with links to favourite songs and more. You are just one click away...

Login with Facebook Login with Google