Log in

One click and you are in

Login with Facebook Login with Google

Why sign up and log in

Guitar Tabs Explorer
Jet chords for Are you gonna be my girl ukulele

Are You Gonna Be My Girl Ukulele chords by Jet

Jet chords for Are you gonna be my girl ukulele

Guitar chords

Intro:

A|-----------------------------3-----------------------------------|
E|-5---5---5-----5-5---5-0h3h5-----5---5---5-----5-5---5-0h3p0h3---|
C|-4---4---4-----4-4---4-----------4---4---4-----4-4---4-----------|
g|-----------------------------------------------------------------|

A|-----------------------------3-------3---5b6b5-3-----------------|
E|-5---5---5-----5-5---5-0h3h5-----5-----------------5-5---5---3---|
C|-4---4---4-----4-4---4-------------------------------------------|
g|-----------------------------------------------------------------|
Verse:

A|-----------------------------------------------------------------|
E|-5-x-------------------------------------------------------------|
C|-4-x-------------------------------------------------------------|
g|-----------------------------------------------------------------|

A|-----------------------------3-----------------------------------|
E|-5---5---5-----5-5---5-0h3h5-----5-x-----------------------------|
C|-4---4---4-----4-4---4-----------4-x-----------------------------|
g|-----------------------------------------------------------------|

A|-----------------------------------------------------------------|
E|-5---5---5-----5-5---5-0h3p0h3---5-x-----------------------------|
C|-4---4---4-----4-4---4-----------4-x-----------------------------|
g|-----------------------------------------------------------------|

A|-------------------------------------------------------------3---|
E|---------------------------------5---5---5-----5-5---5-0h3h5-----|
C|---------------------------------4---4---4-----4-4---4-----------|
g|-----------------------------------------------------------------|

A|-----3---5b6b5-3-----------------|
E|-5-----------------5-5---5---3---|
C|---------------------------------|
g|---------------------------------|

A|---5-x---5-x---5---------3-----------5-x---5-x---5-------3-------|
E|---5-x---5-x---5---------3---5-------5-x---5-x---5-------3---5---|
C|-----------------------------4-------------------------------4---|
g|-----------------------------------------------------------------|

A|---5-x---5-x---5---------3-----------5-x---5-x---5-------3-------|
E|---5-x---5-x---5---------3---5-------5-x---5-x---5-------3---5---|
C|-----------------------------4-------------------------------4---|
g|-----------------------------------------------------------------|

Chorus:


A|---------------------------------3---3---3-----3-3---3---3-3-3-3-|
E|-5---5---5-----5-5---5---5-5-5-5-3---3---3-----3-3---3---3-3-3-3-|
C|-4---4---4-----4-4---4---4-4-4-4---------------------------------|
g|-----------------------------------------------------------------|

A|-5---5---5-----5-5---5---5-5-3-------------------------------3---|
E|-5---5---5-----5-5---5---5-5-3---5---5---5-----5-5---5-0h3h5-----|
C|---------------------------------4---4---4-----4-4---4-----------|
g|-----------------------------------------------------------------|

A|---------------------------------3---3---3-----3-3---3---3-3-3-3-|
E|-5---5---5-----5-5---5---5-5-5-5-3---3---3-----3-3---3---3-3-3-3-|
C|-4---4---4-----4-4---4---4-4-4-4---------------------------------|
g|-----------------------------------------------------------------|

A|-5---5---5-----5-5---5---5-5-3-------------------------------3---|
E|-5---5---5-----5-5---5---5-5-3---5---5---5-----5-5---5-0h3h5-----|
C|---------------------------------4---4---4-----4-4---4-----------|
g|-----------------------------------------------------------------|

A|---7-x---7-x---7---------7---7---10--10-~------------------------|
E|---7-x---7-x---7---------7---7---10--10-~------------------------|
C|-----------------------------------------------------------------|
g|-----------------------------------------------------------------|

Interlude:

A|-----------------------------3-----------------------------------|
E|-5---5---5-----5-5---5-0h3h5-----5---5---5-----5-5---5-0h3p0h3---|
C|-4---4---4-----4-4---4-----------4---4---4-----4-4---4-----------|
g|-----------------------------------------------------------------|

A|-----------------------------3-------3---5b6b5-3-----------------|
E|-5---5---5-----5-5---5-0h3h5-----5-----------------5-5---5---3---|
C|-4---4---4-----4-4---4-------------------------------------------|
g|-----------------------------------------------------------------|


Verse:

A|-----------------------------------------------------------------|
E|-5-x-------------------------------------------------------------|
C|-4-x-------------------------------------------------------------|
g|-----------------------------------------------------------------|

A|-----------------------------3-----------------------------------|
E|-5---5---5-----5-5---5-0h3h5-----5-x-----------------------------|
C|-4---4---4-----4-4---4-----------4-x-----------------------------|
g|-----------------------------------------------------------------|

A|-----------------------------------------------------------------|
E|-5---5---5-----5-5---5-0h3p0h3---5-x-----------------------------|
C|-4---4---4-----4-4---4-----------4-x-----------------------------|
g|-----------------------------------------------------------------|

A|-------------------------------------------------------------3---|
E|---------------------------------5---5---5-----5-5---5-0h3h5-----|
C|---------------------------------4---4---4-----4-4---4-----------|
g|-----------------------------------------------------------------|

A|-----3---5b6b5-3-----------------|
E|-5-----------------5-5---5---3---|
C|---------------------------------|
g|---------------------------------|

A|---5-x---5-x---5---------3-----------5-x---5-x---5-------3-------|
E|---5-x---5-x---5---------3---5-------5-x---5-x---5-------3---5---|
C|-----------------------------4-------------------------------4---|
g|-----------------------------------------------------------------|

A|---5-x---5-x---5---------3-----------5-x---5-x---5-------3-------|
E|---5-x---5-x---5---------3---5-------5-x---5-x---5-------3---5---|
C|-----------------------------4-------------------------------4---|
g|-----------------------------------------------------------------|


Chorus:

A|---------------------------------3---3---3-----3-3---3---3-3-3-3-|
E|-5---5---5-----5-5---5---5-5-5-5-3---3---3-----3-3---3---3-3-3-3-|
C|-4---4---4-----4-4---4---4-4-4-4---------------------------------|
g|-----------------------------------------------------------------|

A|-5---5---5-----5-5---5---5-5-3-------------------------------3---|
E|-5---5---5-----5-5---5---5-5-3---5---5---5-----5-5---5-0h3h5-----|
C|---------------------------------4---4---4-----4-4---4-----------|
g|-----------------------------------------------------------------|

A|---------------------------------3---3---3-----3-3---3---3-3-3-3-|
E|-5---5---5-----5-5---5---5-5-5-5-3---3---3-----3-3---3---3-3-3-3-|
C|-4---4---4-----4-4---4---4-4-4-4---------------------------------|
g|-----------------------------------------------------------------|

A|-5---5---5-----5-5---5---5-5-3-------------------------------3---|
E|-5---5---5-----5-5---5---5-5-3---5---5---5-----5-5---5-0h3h5-----|
C|---------------------------------4---4---4-----4-4---4-----------|
g|-----------------------------------------------------------------|

A|---7-x---7-x---7---------7---7---10--10-~------------------------|
E|---7-x---7-x---7---------7---7---10--10-~------------------------|
C|-----------------------------------------------------------------|
g|-----------------------------------------------------------------|

Interlude:

A|-----------------------------------------------------------------|
E|-5---5---5-----5-5---5---5-5-3-3-5---5---5-----5-5---5---5-5-3-3-|
C|-4---4---4-----4-4---4---4-4-2-2-4---4---4-----4-4---4---4-4-2-2-|
g|-----------------------------------------------------------------|

A|-----------------------------------------------------------------|
E|-5---5---5-----5-5---5---5-5-3-3-5---5---5-----5-5---5---5-5-3-3-|
C|-4---4---4-----4-4---4---4-4-2-2-4---4---4-----4-4---4---4-4-2-2-|
g|-----------------------------------------------------------------|

A|---------------------------------3---3---3-----3-3---3---3-3-3-3-|
E|-5---5---5-----5-5---5---5-5-5-5-3---3---3-----3-3---3---3-3-3-3-|
C|-4---4---4-----4-4---4---4-4-4-4---------------------------------|
g|-----------------------------------------------------------------|

A|-5---5---5-----5-5---5---5-5-3-------------------------------3---|
E|-5---5---5-----5-5---5---5-5-3---5---5---5-----5-5---5-0h3h5-----|
C|---------------------------------4---4---4-----4-4---4-----------|
g|-----------------------------------------------------------------|

A|---------------------------------3---3---3-----3-3---3---3-3-3-3-|
E|-5---5---5-----5-5---5---5-5-5-5-3---3---3-----3-3---3---3-3-3-3-|
C|-4---4---4-----4-4---4---4-4-4-4---------------------------------|
g|-----------------------------------------------------------------|

A|-5---5---5-----5-5---5---5-5-3-------------------------------3---|
E|-5---5---5-----5-5---5---5-5-3---5---5---5-----5-5---5-0h3h5-----|
C|---------------------------------4---4---4-----4-4---4-----------|
g|-----------------------------------------------------------------|


Chorus:

A|---------------------------------3---3---3-----3-3---3---3-3-3-3-|
E|-5---5---5-----5-5---5---5-5-5-5-3---3---3-----3-3---3---3-3-3-3-|
C|-4---4---4-----4-4---4---4-4-4-4---------------------------------|
g|-----------------------------------------------------------------|

A|-5---5---5-----5-5---5---5-5-3-------------------------------3---|
E|-5---5---5-----5-5---5---5-5-3---5---5---5-----5-5---5-0h3h5-----|
C|---------------------------------4---4---4-----4-4---4-----------|
g|-----------------------------------------------------------------|

A|---------------------------------3---3---3-----3-3---3---3-3-3-3-|
E|-5---5---5-----5-5---5---5-5-5-5-3---3---3-----3-3---3---3-3-3-3-|
C|-4---4---4-----4-4---4---4-4-4-4---------------------------------|
g|-----------------------------------------------------------------|

A|-5---5---5-----5-5---5---5-5-3-------------------------------3---|
E|-5---5---5-----5-5---5---5-5-3---5---5---5-----5-5---5-0h3h5-----|
C|---------------------------------4---4---4-----4-4---4-----------|
g|-----------------------------------------------------------------|


Outro:

A|---------------------------------3---3---3-----3-3---3---3-3-3-3-|
E|-5---5---5-----5-5---5---5-5-5-5-3---3---3-----3-3---3---3-3-3-3-|
C|-4---4---4-----4-4---4---4-4-4-4---------------------------------|
g|-----------------------------------------------------------------|

A|-5---5---5-----5-5---5---5-5-3-----7-x---7-x---7---------7---7---10--10-~--------|
E|-5---5---5-----5-5---5---5-5-3-----7-x---7-x---7---------7---7---10--10-~--------|
C|---------------------------------------------------------------------------------|
g|---------------------------------------------------------------------------------|

Almost there ...

Sign in to get your own page with links to favourite songs and more. You are just one click away...

Login with Facebook Login with Google