Log in

One click and you are in

Login with Facebook Login with Google

Why sign up and log in

Guitar Tabs Explorer
Jet bass tabs for Are you gonna be my girl

Bass tabs with lyrics

Group: Jet

Album: Get Born    It's a pretty cool song, listen to the song before
playing so you get the right timing. (Hegel)

          ARE YOU GONNA BE MY GIRL


INTRO:

G|--------------------

D|--------------------

A|-------------------3

E|--5-5-5--5-5-0-3-3--


G|--------------------

D|--------------------

A|--------------------    2x

E|--5-5-5--5-5-0-3-0--


G|--------------------

D|--------------------

A|-------------------3

E|--5-5-5--5-5-0-3-3--


G|--------------------

D|--------------------

A|---3-5--5-3---------

E|-5----------5--3----

 Go!!
G|--------------------

D|--------------------

A|-------------------3

E|--5-5-5--5-5-0-3-3^×


G|--------------------

D|--------------------

A|--------------------

E|--5-5-5--5-5-0-3-0--


G|--------------------

D|--------------------

A|-------------------3

E|--5-5-5--5-5-0-3-3--


G|--------------------

D|--------------------

A|---3-5--5-3---------

E|-5----------5--3----

So 1,2,3, take my hand and come with me  --|
because you look so fine          |Don^Òt play here
and i really wanna make you mine     --|

G|---------------------

D|---------------------

A|------------------3--

E|-5-5-5--5-5-0-3-3----


 I say you look so fine        --|--DON^ÒT PLAY
that I really wanna make you mine.   --|

G|--------------------

D|--------------------

A|-------------------3

E|--5-5-5--5-5-0-3-3--


Oh, 4,5,6 c'mon and get your kicks  ---|
now you dont need that money      |--DON^ÒT PLAY
when you look like that, do ya honey ---|

G|--------------------

D|--------------------

A|--------------------

E|--5-5-5--5-5-0-3-0--


G|---------------------

D|---------------------

A|---3-5--5-3----------

E|-5----------5--3-----


Big black boots,
long brown hair,
she's so sweet
with her get back stare

G |--------------------------------------------------

D |--------------------------------------------------

A |-----------3-------------3-------------3----------

E |-5-5-5-3-3-----5-5-5-3-3-----5-5-5-3-3-----5-5-5--


Well I could see,
you home with me,
that you were with another man, yea!
I know we,
ain't got much to say,
before I let you get away, yea!
I said, are you gonna be my girl?


CHORUS 2X:

G|-------------------------------------------------------------------

D|-------------------------------------------------------------------

A|--------------------3-3-3--3-3-3333---5-5-5--5-5-5555--------------

E|-5-5-5--5-5-55-55-------------------------------------5-5-5--5-5-55

THEN YOU PLAY THIS

 G |---------------------

D |---------------------

A |------------3-5-6-5--

E |--5-5-5-3-5----------


After you played all that, you play through one more time from where it
says, ^ÓSo 1,2,3, take my hand and come with me^Å^Ô

THEN YOU PLAY THIS:

G |-------------------

D |-------------------

A |-------------------     20X

E |--5-5-5-55-3-55-3--


P.S.

  I know that there is already a tab for this song, but I'm not sure if
it's bass or guitar. It says tab, so I think it's for guitar. If it
isn't, I saw the tab, and I think my tab is a little more thorough. It
has a little bit more of details so it will sound pretty close of what
they play. I have the lyrics on top of what you're supposed to play, that
helps you with timing. I think it's a pretty good tab and I'd be happy if
you post it.

  Hegel

Other versions of Are You Gonna Be My Girl

Are you gonna be my girl introBass tabs

Almost there ...

Sign in to get your own page with links to favourite songs and more. You are just one click away...

Login with Facebook Login with Google