Log in

One click and you are in

Login with Facebook Login with Google

Why sign up and log in

Guitar Tabs Explorer
Jet tabs for Are you gonna be my girl

Guitar tabs

Intro:

E----------------------------------------------------------------
B----------------------------------------------------------------
G----------------------------------------------------------------
D----------------------------------------------------------------
A--------------------3--------------------3--5-b-6-b-5-3-----3---
E----5-5-5---5-5-5-3----3 times then---5-----------------5-5-----

E----------------------------------------------------------------
B----------------------------------------------------------------
G----------------------------------------5--7-b-8-b-7-5------5---
D----------------------------------5-s-7----------------7-7------
A--------------------3-------------------------------------------
E----5-5-5---5-5-5-3----3 times then-----------------------------
Verse

E----------------------------------------------------------------
B----------------------------------------------------------------
G---------------------------------------5--7-b-8-b-7--5----------
D---7-7-7---7-7-7-7--7---------------7--5--7-b-8-b-7--5--7--7----
A---7-7-7---7-7-7-7--7---------------7--3--5-b-6-b-5--3--7--7----
E---5-5-5---5-5-5-5--5--3 times then-5-------------------5--5----

"well it's a one two three..."

E----------------------------------------------------------------
B----------------------------------------------------------------
G----------------------------------------------------------------
D---7-7-7---7-7-7-7--7-------------------------------------------
A---7-7-7---7-7-7-7--7-------------------------------------------
E---5-5-5---5-5-5-5--5-------------------------------------------

"I said you look so fine..."

E----------------------------------------------------------------
B----------------------------------------------------------------
G----------------------------------------------------------------
D---7-7-7---7-7-7-7--7-------------------------------------------
A---7-7-7---7-7-7-7--7-------------------------------------------
E---5-5-5---5-5-5-5--5-------------------------------------------

"Four five six come on and get your kicks..."

E----------------------------------------------------------------
B----------------------------------------------------------------
G--------------------------5--7-b-8-b-7--5-----------------------
D---7-7-7---7-7-7-7--7--7--5--7-b-8-b-7--5--7--7--5---------------
A---7-7-7---7-7-7-7--7--7--3--5-b-6-b-5--3--7--7--5---------------
E---5-5-5---5-5-5-5--5--5-------------------5--5--3---------------

E----------------------------------------------------------------
B----------------------------------------------------------------
G---7-7-7--5-----------------------------7-7-7-------------------
D---7-7-7--5--5--------------------------7-7-7-------------------
A---5-5-5--3--5--------------------------5-5-5-------------------
E-------------3----3 times and then just-------------------------

Chorus:

E----------------------------------------------------------------
B----------------------------------------------------------------
G-------------------5-5-5--5-5--5---7-7-7--7-7--7----------------
D---7-7-7--7-7--7---5-5-5--5-5--5---7-7-7--7-7--7--7-7-7--7-7--7-
A---7-7-7--7-7--7---3-3-3--3-3--3---5-5-5--5-5--5--7-7-7--7-7--7-
E---5-5-5--5-5--5----------------------------------5-5-5--5-5--5-

twice then

E----------------------------------------------------------------
B----------------------------------------------------------------
G---9--9--9----12--12--------------------------------------------
D---9--9--9----12--12--------------------------------------------
A---7--7--7----10--10--------------------------------------------
E----------------------------------------------------------------

Then everything from the verse again through to the above chorus, then:

"I said are you gonna be my girl..."

E----------------------------------------------------------------
B----------------------------------------------------------------
G----------------------------------------------------------------
D---7-7-7---7-7-7-7--7-------------------------------------------
A---7-7-7---7-7-7-7--7-------------------------------------------
E---5-5-5---5-5-5-5--5--keep playing this under the solo---------


Solo:

E----------------------------------------------------------------
B-------------------------15----------------------17-------------
G---14--16-b-17-b-16--14-----14--16-b-17-b-16--14----------------
D----------------------------------------------------------------
A----------------------------------------------------------------
E----------------------------------------------------------------

E----------------------------------------------------------------
B----------------------------------------------------------------
G---14--16-b-17-b-16--14-----14--16-b-17-b-16--14----------------
D-------------------------14-------------------------------------
A----------------------------------------------------------------
E----------------------------------------------------------------

Other versions of Are You Gonna Be My Girl

Are you gonna be my girlChords
Are you gonna be my girl ukuleleChords
Are you gonna be my girlTabs

Almost there ...

Sign in to get your own page with links to favourite songs and more. You are just one click away...

Login with Facebook Login with Google