Log in

One click and you are in

Login with Facebook Login with Google

Why sign up and log in

Guitar Tabs Explorer
Jet bass tabs for Are you gonna be my girl  intro

Are You Gonna Be My Girl Intro bass tab by Jet

Jet bass tabs for Are you gonna be my girl  intro

Bass tabs

Bass Tab Intro.

	Album: Get Born.
Intro: Bass Starts During Highhat
|------------------------------------------||
|------------------------------------------||
|------------------------3----------------||
|---555---55--0-3-5--------------------||

|------------------------------------------||
|------------------------------------------||
|------------------------------------------||
|----555----55----030------------------||

|------------------------------------------||
|------------------------------------------||
|------------------------3----------------||
|---555---55--0-3-5--------------------||

|------------------------------------------||
|------------------------------------------||
|----------3---5---5----3----------------||
|----5------------------------5-----------||

Then the verse....
etc.
mad intro, more of a bass solo actually.
Yea, id seen it tabed before, but it was a little confusing, so i hope this helps.
Any Questions or mistakes, email me at fmx_freak_22@hotmail.com
Cheers,
	Mitch, ROCKON!!!

Almost there ...

Sign in to get your own page with links to favourite songs and more. You are just one click away...

Login with Facebook Login with Google