Guitar Tabs Explorer
Jessie J bass tabs for Price tag

Price Tag bass tab


3 / 5 [1 vote]

Price Tag bass tab by Jessie J

Bass tabs

Print

Have a video to go with this tab here...

http://www.youtube.com/watch?v=JrXmViFBQ08


Intro

G|------------------------------------------------------------------------------------|
D|-----------------------------------10----------------------------------------10h12--|
A|-8-8---8-x-8--10--12-12---12-x-12-----------------------10--13-13---13-x-13---------|
E|---------------------------------------10-10---10-x-10------------------------------|


G|-------------------------------------------------------------------|
D|-----------------------------------10------------------------------|
A|-8-8---8-x-8--10--12-12---12-x-12-----------------------10--13-----|
E|---------------------------------------10-10---10-x-10-------------|


Probally worth noting although it dosnt slide in to the Chorus's i do it from
the......

G|------|
D|------|
A|-2/---|
E|------|


G|--------------------------------------------------------------------------|
D|--------------------------------------------------------------------------|
A|-8-8---8-x-8--10----------------------------------------------------------|
E|------------------5-5---5-x-5--8--10-10---10-x-10--8--6-6---6-x-6--8h10---|


Verse 2

G|------------------------------------------------------------------------------|
D|------------------------------------------------------------------------------|
A|-8-8---8-x-8--10--12-12---12-x-12---------------------------------------------|
E|-----------------------------------8--10-10---10-x-10--8--6-6---6-x-6--8h10---|

Play Chorus again

Verse 3 (B.o.B)

Play start same as second verse amd then...

G|-------------------------------------------------------------------------------|
D|-------------------------------------------------------------------------------|
A|-8-8---8-x-8-----12-12---12-x-12-----------------------------------------------|
E|--------------------------------------10-10---10-x-10-----6-6---6-x-6--8h10----|

Play chrous to the end.

I Play the outro like this...



G|------------------14-14----------------------------------------------------------------|
D|---------------------------------------------------------------------------------------|
A|-8-8---8-x-8--10----------12-x-12------------------------------8~----12~---------------|
E|-----------------------------------8--10-10---10-x-10--8--6~----------------10~----6~--|


Have a few other bass covers available with tabs here...

www.youtube.com/HarryHopkinson