Guitar Tabs Explorer
Jessie J guitar tabs for Personal

Personal tab


Be the first to rate

Personal tab by Jessie J

Guitar tabs

Print

  • Capo on 2nd
-------------------------------------------------------------------------------
                             Personal - Jessie J
-------------------------------------------------------------------------------


h: hammer on
p: pull off
U: strum up
D chord diagramDD: strum down
x: mute note
(x2): play 2 times
(x4): play 4 times
________________________________________________________________________________


VERSE CHORD RIFF: (x4 + x2 / x2)
e|----------------------------------------------------|
B|------0h1---1p0-------------------------------------|
G|----0-----0-----------------------------------------|
D|--2-----2-----0-------------------------------------|
A|----------------------------------------------------|
E|----------------------------------------------------|

e|----------------------------------------------------|
B|------3-----0h1-------------------------------------|
G|----2-----0-----------------------------------------|
D|--0-----2-----2-------------------------------------|
A|----------------------------------------------------|
E|----------------------------------------------------|


PRECHORUS:
e|-------------------------------------|
B|------0-----1----------0-----3-------|
G|----0-----0------0---0-----2------2--|
D|--2-----2----------0-----0-----------|
A|-------------------------------------|
E|-------------------------------------|


CHORUS/BRIDGE:
D chord diagramDD U D chord diagramDD U   U D chord diagramDD U   U D chord diagramDD U   U D chord diagramDD U D chord diagramDD U D chord diagramDD U   U D chord diagramDD U   U D chord diagramDD U   U D chord diagramDD U
0 0 x 0   0 x 3   3 x 2   2 2 2 0 0 x 0   0 x 3   3 x 2   2 2 2
0 0 x 1   1 x 3   3 x 3   3 3 3 0 0 x 1   1 x 3   3 x 3   3 3 3
0 0 x 0   0 x 0   0 x 2   2 2 2 0 0 x 0   0 x 0   0 x 2   2 2 2
2 2 x 2   2 x 0   0 x 0   0 0 0 2 2 x 2   2 x 0   0 x 0   0 0 0
2 2 x 3   3 x 2   2 x 0   0 0 0 2 2 x 3   3 x 2   2 x 0   0 0 0
0 0 x x   x x 3   3 x x   x x x 0 0 x x   x x 3   3 x x   x x x


D chord diagramDD U D chord diagramDD U   U D chord diagramDD U   U D chord diagramDD U   U D chord diagramDD U D chord diagramDD U D chord diagramDD U   U D chord diagramDD U   U D chord diagramDD U   U D chord diagramDD U
0 0 x 0   0 x 3   3 x 2   2 2 2 0 0 x 0   0 x 3   3 x 3   3 3 3
0 0 x 1   1 x 3   3 x 3   3 3 3 0 0 x 1   1 x 3   3 x 3   3 3 3
0 0 x 0   0 x 0   0 x 2   2 2 2 0 0 x 0   0 x 0   0 x 2   2 2 2
2 2 x 2   2 x 0   0 x 0   0 0 0 2 2 x 2   2 x 0   0 x 0   0 0 0
2 2 x 3   3 x 2   2 x 0   0 0 0 2 2 x 3   3 x 2   2 x 2   2 2 2
0 0 x x   x x 3   3 x x   x x x 0 0 x x   x x 3   3 x 3   3 3 3

Other versions of Personal

PersonalChords