Guitar Tabs Explorer
Jessie J guitar tabs for Masterpiece acoustic

Masterpiece Acoustic tab


Be the first to rate

Masterpiece Acoustic tab by Jessie J

Guitar tabs with lyrics

Print
  • Capo on 1st
Difficulty: Intermediate

Jessie J – Masterpiece (Acoustic)

Tuning: Standard


Intro:
   Bm chord diagramBmBm
e|---------------------------------|
B|-3-3--x--3-3--x--3-3--x--3-3--x--|
G|-4-4--x--4-4--x--4-4--x--x-4--x--|
D|-2-4--x--2-4--x--2-4--x--5-4--x--|
A|-2-2--x--2-2--x--2-2--x--2-2--x--|
E|---------------------------------|

e|---------------------------------|
B|-3-3--x--3-3--x--3-3--x--7---7-\-|
G|-4-4--x--4-4--x--4-4--x--4---4-\-|
D|-2-4--x--2-4--x--2-4--x--4---4-\-|
A|-2-2--x--2-2--x--2-2--x----------|
E|---------------------------------|


Verse 1: x3
   Bm chord diagramBmBm
e|---------------------------------|
B|-3-3--x--3-3--x--3-3--x--3-3--x--|
G|-4-4--x--4-4--x--4-4--x--x-4--x--|
D|-2-4--x--2-4--x--2-4--x--5-4--x--|
A|-2-2--x--2-2--x--2-2--x--2-2--x--|
E|---------------------------------|

   Bm chord diagramBmBm
e|---------------------------------|
B|-3-3--x--3-3--x--3-3--x--7--7-\--|
G|-4-4--x--4-4--x--4-4--x--4--4-\--|
D|-2-4--x--2-4--x--2-4--x--4--4-\--|
A|-2-2--x--2-2--x--2-2--x----------|
E|---------------------------------|

   Em chord diagramEmEm
e|---------------------------------------|
B|---------------------------------------|
G|-0--0--x---0--0--x---0--0--x---0--0--x-|
D|-0--2--x---0--2--x---0--2--x---0--2--x-|
A|-0--2--x---0--2--x---0--2--x---0--2--x-|
E|-0--0--x---0--0--x---0--0--x---0--0--x-|

   Em chord diagramEmEm*                           A chord diagramAA
e|----x---------x---------x--------------|
B|----5--x------5--x------5--x---2---2---|
G|----4--x------4--x------4--x---2---2---|
D|-0--2--x---0--2--x---0--2--x---2---2---|
A|-------------------------------0---0---|
E|---------------------------------------|


Chorus 1: (no exact strumming pattern, watch and listen the song;)
   D chord diagramDD                A chord diagramAA              Em chord diagramEmEm*      F# chord diagramF#F#/D chord diagramDD  G chord diagramGG
e|-2-----2-3-2(0)-|-0------------|-3---------2--|-3------------|
B|-3-----3-3-3(3)-|-2------------|-5---------3--|-3------------|
G|-2-----2-2-2(2)-|-2------------|-4---------2--|-0------------|
D|-0--------------|-2------------|-2---------0--|-0------------|
A|-0--------------|-0------------|-x---------0--|-2------------|
E|----------------|--------------|-0---------2--|-3------------|

(cont. – just chord progression)
   D chord diagramDD            A chord diagramAA            Em chord diagramEmEm      F# chord diagramF#F#/D chord diagramDD  G chord diagramGG
e|-2----------|-0----------|-0--------2--|-3----------|
B|-3----------|-2----------|-0--------3--|-3----------|
G|-2----------|-2----------|-0--------2--|-0----------|
D|-0----------|-2----------|-2--------0--|-0----------|
A|-0----------|-0----------|-2--------0--|-2----------|
E|------------|------------|-0--------2--|-3----------|

  „Oooh...”
   D chord diagramDD            A chord diagramAA            Em chord diagramEmEm      F# chord diagramF#F#/D chord diagramDD  G chord diagramGG      G chord diagramGG*
e|-2----------|-0----------|-0--------2--|-3------3\--|
B|-3----------|-2----------|-0--------3--|-3------3\--|
G|-2----------|-2----------|-0--------2--|-0------4\--|
D|-0----------|-2----------|-2--------0--|-0------5\--|
A|-0----------|-0----------|-2--------0--|-2------5\--|
E|------------|------------|-0--------2--|-3------3\--|


Verse 2: the same as Verse 1 but just x2


Chorus:
   D chord diagramDD            A chord diagramAA            Em chord diagramEmEm      F# chord diagramF#F#/D chord diagramDD  G chord diagramGG
e|-2----------|-0----------|-0--------2--|-3----------|
B|-3----------|-2----------|-0--------3--|-3----------|
G|-2----------|-2----------|-0--------2--|-0----------|
D|-0----------|-2----------|-2--------0--|-0----------| x2
A|-0----------|-0----------|-2--------0--|-2----------|
E|------------|------------|-0--------2--|-3----------|

  „Oooh...”
   D chord diagramDD            A chord diagramAA            Em chord diagramEmEm            G chord diagramGG
e|-2----------|-0----------|-0-----------|-3----------|
B|-3----------|-2----------|-0-----------|-3----------|
G|-2----------|-2----------|-0-----------|-0----------|
D|-0----------|-2----------|-2-----------|-0----------|
A|-0----------|-0----------|-2-----------|-2----------|
E|------------|------------|-0-----------|-3----------|


Bridge:
   D chord diagramDD                A chord diagramAA              Em chord diagramEmEm*      F# chord diagramF#F#/D chord diagramDD  G chord diagramGG
e|-2-----2-3-2(0)-|-0------------|-3---------2--|-3-----------|-3-----------|
B|-3-----3-3-3(3)-|-2------------|-5---------3--|-3-----------|-3-----------|
G|-2-----2-2-2(2)-|-2------------|-4---------2--|-0-----------|-0-----------|
D|-0--------------|-2------------|-2---------0--|-0-----------|-0-----------|
A|-0--------------|-0------------|-x---------0--|-2-----------|-2-----------|
E|----------------|--------------|-0---------2--|-3-----------|-3-----------|


Chorus:
   D chord diagramDD            A chord diagramAA            Em chord diagramEmEm      F# chord diagramF#F#/D chord diagramDD  G chord diagramGG
e|-2----------|-0----------|-0--------2--|-3----------|
B|-3----------|-2----------|-0--------3--|-3----------|
G|-2----------|-2----------|-0--------2--|-0----------|
D|-0----------|-2----------|-2--------0--|-0----------| x3
A|-0----------|-0----------|-2--------0--|-2----------|
E|------------|------------|-0--------2--|-3----------|


That’s All!
But you really need to listen to the song, because as you can see I didn’t want to
put too much TAB notes in the Chorus sections to not let you think „What the hack is this or that”.
Just listen to the song and you will know the strumming pattern, its changing and breaks.
I hope you can find this TAB Useful for you! :)
Have a nice play/day!

P.S.
You can add D chord diagramDD Chord at the End of the song, it sounds Better in my opinion ;)

„...working on my Masterpieeeeeeece"
                            D chord diagramDD
e|--------------------------2-----------|
B|--------------------------3-----------|
G|--------------------------2-----------|
D|--------------------------0-----------|
A|--------------------------0-----------|
E|--------------------------------------|

Other versions of Masterpiece Acoustic

MasterpieceChords
Masterpiece (Ver. 2)Chords

Comment this song and these guitar tabs

Do you have corrections, comments on the guitar tabs, thoughts about the song or a message to the author? Write them below.