Log in

One click and you are in

Login with Facebook Login with Google

Why sign up and log in

Guitar Tabs Explorer
Jessie J guitar tabs for Flashlight

Intro

Tuning: Standard, Capo on 5th fret

e|---------------------------------------------------------------------------|
B|---1------------0---------1---------3--------------1--------------0--------|
G|---------0-----------0---------0----------0---------------0-------------0--|
D|---------------------------------------------------------------------------|
A|---------------------------------------------------------------------------|
E|---1-----------------------------------------------3-----------------------|

e|---------------------------------------------------------------------------|
B|----1------------3--------------5----------1----------6--------5-----------|
G|-----------0------------0-------------0----------0--------0--------0-------|
D|---------------------------------------------------------------------------|
A|--------------------------------3------------------------------------------|
E|---------------------------------------------------------------------------|

e|---------------------------------------------------------------------------|
B|----3----------------5----------------3---------------1--------------------|
G|----------0------------------0----------------0---------------0------------|
D|---------------------------------------------------------------------------|
A|---------------------------------------------------------------------------|
E|----1----------------------------------------------------------------------|

This can go on from the intro, down to the first verse.

Other versions of Flashlight

FlashlightChords
Flashlight (Ver. 2)Chords
Flashlight (Ver. 3)Chords
Flashlight (Ver. 4)Chords
Flashlight (Ver. 5)Chords
Flashlight (Ver. 6)Chords
Flashlight ukuleleChords
Flashlight (Ver. 2) - introTabs

↓ Add and view comments below ↓

What do you think about this song and these tabs?

Add your comments, questions, rant or a thumbs up below.

Almost there ...

Sign in to get your own page with links to favourite songs and more. You are just one click away...

Login with Facebook Login with Google