Log in

One click and you are in

Login with Facebook Login with Google

Why sign up and log in

Guitar Tabs Explorer
Jeanette bass tabs for Buena noche amor

Bass tabs

Key: Bbm


Intro: (0:00-0:23)
G|---------------|------------------|-----------------|-----------------|
D|----------4----|------------------|-----------------|------11-10-8----|
A|-6-------------|------8-----------|-6---6-6/8-------|---------------8-|
E|------4--------|-1-------6---4----|-------------1---|-6---------------|

G|------------------|------------------|-----------------|---------------------|
D|-------------4----|------------------|-----------------|--------11-10-8h10-8-|
A|-6----6-----------|------8-----------|-6---6-6/8-------|---------------------|
E|---------4--------|-1-------6---4----|-------------1---|-6-------------------|


Verse 1: (0:26-1:10)
G|-----------------|----------------------|------------------|---------------------|-------------10h11-10~-\-|
D|-----------------|----------------------|------------------|---------------------|------8/10---------------|
A|-----------------|----------------------|------------------|---------------------|-------------------------|
E|-6------1-6------|-6-/11------6-11------|-11-13-----14-----|-13-----11----9----\-|-6-----------------------|

G|-----------------|----------------------|--------------------------|----------------------|
D|-----------------|----------------------|--------------------------|----------------------|
A|-----------------|----------------------|--------------------------|----------6-7-8-------|
E|-6------1-6------|-6-/11------6-11------|-11-13-----14-----13------|-1-6----------------6-|


Chorus 1: (1:12-1:57)
G|----------------------|------------------------|------------------|-------------------------|
D|--------------6----6--|-4----6-4-3----3--3-----|-4----4--3----4-3-|---------------3---------|
A|-6----6--6------------|------------------------|------------------|-6----6--6---------1/3---|
E|----------------------|------------------------|------------------|-----------------------1-|

G|---------------------|---------3-----------|---------------------------|----------------------------------|
D|---------1-2-3-------|-------3---3---------|--------------6h8--6----6--|-4-----6-4-3----3--3----3---------|
A|----1----------------|-1-----------1----1/-|-6----6--6-----------------|----------------------------------|
E|-1----------------1--|---------------------|---------------------------|-----------------------------1--1-|

G|----------------------|-------------------|----------------|
D|-4-3------------------|-------------------|-----------3----|
A|-----6----6--6----6h8-|-------------------|------1-------1-|
E|----------------------|-1----1--1----2----|-1--------------|

Post-chorus 1: (1:58-2:09)
G|------------------|-----------------|----------------------|--------------------|
D|-------------4----|-----------------|----------------------|-11-10-8h10-8-----\-|
A|-6----6-----------|-----------------|-6---6-6/8------------|--------------------|
E|---------4--------|-1------6---4----|---------------6------|--------------------|


Verse 2: (2:12-2:57)
G|-----------------|----------------------|------------------|---------------------|-------------10h11-10~-\-|
D|-----------------|----------------------|------------------|---------------------|------8/10---------------|
A|-----------------|----------------------|------------------|---------------------|-------------------------|
E|-6------1-6------|-6-/11------6-11------|-11-13-----14-----|-13-----11----9----\-|-6-----------------------|

G|-----------------|----------------------|--------------------------|----------------------------|
D|-----------------|----------------------|--------------------------|----------------------------|
A|-----------------|----------------------|--------------------------|----------6-7-8-------------|
E|-6------1-6------|-6-/11------6-11------|-11-13-----14-----13------|-1-6----------------6----1/-|


Chorus 2: (2:58-4:35)
G|--------------------------|--------------------------|--------------------|----------------------|
D|----------------8-6----6--|-4----6-4-3----3--3-------|------4----4-3------|------------3---------|
A|-6----6--6----8-----------|--------------------------|---------------6----|-6--6----6------------|
E|--------------------------|-----------------------1--|-2------------------|-----------------1--1-|

G|-----------------3-----------|-----------------------|------------------------|-----------------|
D|------3------------3---------|---------------6----6--|-4-----6-4-3------------|-4-----------4-3-|
A|-1----------1--------1---1/--|-6----6--6-------------|------------------------|-----------------|
E|---------1-------------------|-----------------------|----------------1--1----|-----3--2--------|

G|----------------------|-------------------|-------------------|-------------------|----------------------|
D|-4-3------------------|-------------------|------------3------|-------------------|----4-----------------|
A|-----6----6--6----6h8-|-------------------|-------1-------1/--|-6----6--6---------|----------------------|
E|----------------------|-1----1--1----2----|-1-----------------|--------------4----|-4-------4\-1----1--1-|

G|---------------------|------------------|-----------------|------------------|--------3------------|
D|-3--4----4--3----4-3-|------------------|-----------------|------1-2-3-------|------3---3----------|
A|---------------------|-6----6--6----6h8-|-----------------|-1----------------|-1----------1----1/--|
E|---------------------|------------------|-1----1--1----1--|---------------1--|---------------------|

G|--------------------------|--------------------------|-----------------------|-----------------------|
D|--------------6h8-6----6--|-4----6-4-3----3--3-------|------4--3----4-3------|-----------------------|
A|-6----6--6----------------|--------------------------|------------------6----|-6--6----6h8-----------|
E|--------------------------|-----------------------1--|-2---------------------|-------------1----1--1-|

G|-----------------------|---------------------------|
D|----------------3------|-----------------6----6--4-|
A|-----------1--------1--|-6----6--6----6------------|
E|-2----1----------------|---------------------------|


☠☠☠☠☠☠☠☠☠☠☠☠☠☠☠☠☠☠☠☠☠☠☠☠☠☠☠☠☠☠☠☠☠☠☠☠

| h  Hammer-on
| /  Slide up
| \  Slide down
| ~  Vibrato

☠☠☠☠☠☠☠☠☠☠☠☠☠☠☠☠☠☠☠☠☠☠☠☠☠☠☠☠☠☠☠☠☠☠☠☠

Almost there ...

Sign in to get your own page with links to favourite songs and more. You are just one click away...

Login with Facebook Login with Google