Log in

One click and you are in

Login with Facebook Login with Google

Why sign up and log in

Guitar Tabs Explorer
Jayesslee guitar chords for Officially missing you

Guitar chords

Tuning: Standard (E A D G B E)

Key: A chord diagramG MajorG

Difficulty: Intermediate
Intro/V/Chorus

e|------2----------7----5-(-)-3----2----3----3----3----------------|
B|-3----2----2-----8----5-(-)-5----3----3----1----1----------------|
G|-4----2----2-----7----5-(-)-4----2----4----0----0---(repeat)-----|
D|-4----2----2-----9----7-(-)-5----x----2----2----0----------------|
A|-x----x----2-----7----5-(-)-3----2----x----0---------------------|
E|-3----2-------------------------------x--------------------------|
   GM7 A chord diagramF#m7F#m7 A chord diagramB9sus4B9sus4 A chord diagramE minor 7Em7  A chord diagramD9D9   CM7  A chord diagramBm7Bm7  A chord diagramDm7Dm7  A chord diagramAm7Am7  A chord diagramD7sus4D7sus4

(optional em7 fill – they don’t include this but I think it could
sound interesting inserted where the parentheses are above)
e|---7----6----5---------------------------------------------------|
B|---8----7----6-----5----4----------------------------------------|
G|---7----6----5-----4----4----------------------------------------|
D|---9----8----7-----3----3----------------------------------------|
A|---7----6----5---------------------------------------------------|
E|-------------------3----3----------------------------------------|
A chord diagramE minor 7Em7  A chord diagramD#m7D#m7 A chord diagramDm7Dm7   A chord diagramG13G13  G7#5

(don’t know you at all…)

e|---2-----3----2----7---------------2-----3----3----3-----------|
B|---0-----5----3----8----5-----5----3-----3----1----1-----------|
G|---2-----4----2----7----4-----4----2-----4----0----0-----------|
D|---1-----5----x----9----5-----5----------2----2----0-----------|
A|---2-----3----2----7----4-----3----2-----x----0----------------|
E|-----------------------------------------x---------------------|
     A chord diagramB7B7    A chord diagramC7C7  A chord diagramBm7Bm7  A chord diagramE minor 7Em7 A chord diagramC#dim7C#dim7 CM7  A chord diagramBm7Bm7   A chord diagramDm7Dm7  A chord diagramAm7Am7 A chord diagramD7sus4D7sus4

(Well I think…)
e|-----------------------------------------------------------------|
B|--10----8-----5-----3----10----8-----5---------------------------|
G|--9-----7-----4-----4----9-----7-----4---------------------------|
D|--10----9-----5-----5----10----9-----5---------------------------|
A|--8-----7-----3-----3----8-----7-----3---------------------------|
E|-----------------------------------------------------------------|
    FM7  A chord diagramE minor 7Em7   CM7   CM9   FM7   A chord diagramE minor 7Em7   CM7

e|-----------------------3--------------------------------|
B|---5----7----8----5----5-----5--------------------------|
G|---5----8----7----4----4-----5--------------------------|
D|---5----7----9----5----5-----7--------------------------|
A|---7----9----7----4----3-----5--------------------------|
E|---5----7-----------------------------------------------|
    A chord diagramAm7Am7   A chord diagramB7B7  A chord diagramE minor 7Em7 A chord diagramC#dim7C#dim7 CM7   A chord diagramD9D9


************************************

| x  Dead note


************************************

Other versions of Officially Missing You

Officially missing youTabs

Almost there ...

Sign in to get your own page with links to favourite songs and more. You are just one click away...

Login with Facebook Login with Google