Log in

One click and you are in

Login with Facebook Login with Google

Why sign up and log in

Guitar Tabs Explorer
The Japanese House bass tabs for Saw you in a dream

Saw You In A Dream bass tab by The Japanese House

The Japanese House bass tabs for Saw you in a dream

Bass tabs

Tuning: Standard (E A D G)


Verse 1:

G|----------------|-------------|
D|----------9-8---|---------9-8-|
A|-7-7--7-------9-|-4-4--4------|
E|----------------|-------------|
G|-------------|-------------|
D|-------------|-------------|  x2
A|---------1-2-|-2-2--2--9-6-|
E|-2-2--2------|-------------|


Pre-Chorus:

G|----------------|-------------|
D|----------9-8---|---------9-8-|
A|-7-7--7-------9-|-4-4--4------|
E|----------------|-------------|

G|-------------|----------------|
D|-------------|----------------|
A|---------1-2-|-2-2------------|
E|-2-2--2------|-----2--5--0--0-|

G|---------------|
D|---------------|
A|-------------9-|
E|-5--5-5--7-9---|


Verse 2:

G|----------------|-------------|
D|----------9-8---|---------9-8-|
A|-7-7--7-------9-|-4-4--4------|
E|----------------|-------------|

G|-------------|-------------|
D|-------------|-------------|  x2
A|---------1-2-|-2-2--2--9-6-|
E|-2-2--2------|-------------|


Pre-Chorus:

G|----------------|-------------|
D|----------9-8---|---------9-8-|
A|-7-7--7-------9-|-4-4--4------|
E|----------------|-------------|

G|-------------|----------------|
D|-------------|----------------|
A|---------1-2-|-2-2------------|
E|-2-2--2------|-----2--5--0--0-|

G|---------------|
D|---------------|
A|-------------9-|
E|-5--5-5--7-9---|


Chorus:

G|-----------------------------|
D|-----------------------------|
A|-----------------------------|
E|-5-5--5-5--5--7-7--7--2-2--2-|

G|-----------------------|
D|-----------------------|
A|-----------------------|
E|-5-5--5--7-7--4-4--5-5-|

G|-----------------------|
D|-----------------------|
A|-----------------------|
E|-5-5--5--7-7--4-4--5-5-|

G|-----------------------|
D|-----------------------|
A|-----------------------|
E|-5-5--5--7-7--4-4--5-5-|


Verse 3:

NO BASS

BASS COMES BACK IN: YOU’RE TAKING YOUR TIME...

G|----------------|-------------|
D|----------9-8---|---------9-8-|
A|-7-7--7-------9-|-4-4--4------|
E|----------------|-------------|

G|-------------|-------------|
D|-------------|-------------|
A|---------1-2-|-2-2--2--9-6-|
E|-2-2--2------|-------------|


Pre-Chorus:

G|----------------|-------------|
D|----------9-8---|---------9-8-|
A|-7-7--7-------9-|-4-4--4------|
E|----------------|-------------|

G|-------------|----------------|
D|-------------|----------------|
A|---------1-2-|-2-2------------|
E|-2-2--2------|-----2--5--0--0-|

G|---------------|
D|---------------|
A|-------------9-|
E|-5--5-5--7-9---|


Chorus:

G|-----------------------------|
D|-----------------------------|
A|-----------------------------|
E|-5-5--5-5--5--7-7--7--2-2--2-|

G|-----------------------|
D|-----------------------|
A|-----------------------|
E|-5-5--5--7-7--4-4--5-5-|

G|-----------------------|
D|-----------------------|
A|-----------------------|
E|-5-5--5--7-7--4-4--5-5-|

G|-----------------------|
D|-----------------------|
A|-----------------------|   x2
E|-5-5--5--7-7--4-4--5-5-|

Almost there ...

Sign in to get your own page with links to favourite songs and more. You are just one click away...

Login with Facebook Login with Google