Log in

One click and you are in

Login with Facebook Login with Google

Why sign up and log in

Guitar Tabs Explorer
James Supercave bass tabs for Something to lose

Something To Lose bass tab - James Supercave

James Supercave bass tabs for Something to lose

Bass tabs

  • Difficulty: Beginner
Tuning: Standard (E A D G)

♫ Intro: 0:26
G|-------12------------------------------------------------------|
D|-11h13----11--9\-----------------------------------------------|
A|---------------------------------------------------------------|
E|---------------------------------------------------------------|
Verse: 0:28
G|---------------------------------------------------------------|
D|---------------------------------------------------------------|
A|---------------------------------------------------------------|
E|-3----------8----------10----------6----------3----------------|x2

G|---------------------------------------------------------------|
D|----------------------------------------------------5-5p4---5--|
A|----------------------------------------------------------5----|
E|-3----------8----------10----------6----------3----------------|

G|---------------------------------------------------------------|
D|---------------------------------------------------------------|
A|---------------------------------------------------------------|
E|-3----------8----------10----------6----------3----------------|

♫ PRE-Chorus: 0:44
G|---------------------------------------------------------------|
D|---------------------------------------------------------------|
A|----------------------------------------------------5--7--10\--|
E|-3----------8----------10----------6----------3----------------|

G|---------------------------------------------------------------|
D|---------------------------------------------------------------|
A|------------------------------------13----13\-10-10-10-10------|
E|-3----------8----------10------10/-----------------------------|

♫ Chorus: 1:17
G|---------------------------------------------------------------|
D|---------------------------------------------------------------|
A|-9--9----------------------------------------------------------|
E|-------7--7/-10-10-10-10\-6-6-6-6\-3-3-3-3---------------------|

G|---------------------------------------------------------------|
D|---------------------------------------------------------------|
A|-9--9---------------------13-13-13h15\-10-10-10-10-------------|
E|-------7--7/-10-10-10-10---------------------------------------|

G|---------------------------------------------------------------|
D|---------------------------------------------------------------|
A|---------------------------------------------------------------|
E|-3----------8----------10----------6----------3----------------|

G|---------------------------------------------------------------|
D|---------------------------------------------------------------|
A|------------------------------------13----13\-10-10-10-10------|
E|-3----------8----------10------10/-----------------------------|

G|---------------------------------------------------------------|
D|---------------------------------------------------------------|
A|-9--9----------------------------------------------------------|
E|-------7--7/-10-10-10-10\-6-6-6-6\-3-3-3-3---------------------|

G|---------------------------------------------------------------|
D|---------------------------------------------------------------|
A|-9--9---------------------13-13-13h15\-10-10-------------------|
E|-------7--7/-10-10-10-10---------------------------------------|

G|---------------------------------------------------------------|
D|---------------------------------------------------------------|
A|---------------------------------------------------------------|
E|-3----------8----------10-10----10-6----------3----------------|

G|---------------------------------------------------------------|
D|---------------------------------------------------------------|
A|------------------------------------13----13\-10-10-10-10------|
E|-3----------8----------10-10----10/----------------------------|

BREAK: 2:22
G|---------------------------------------------------------------|
D|---------------------------------------------------------------|
A|---------------------------------------------------------------|
E|---------------------------------------------------------------|

♫ Outro: 2:38
G|---------------------------------------------------------------|
D|---------------------------------------------------------------|
A|---------------------------------------------------------------|
E|-3----------8----------10----------6----------3----------------|

G|---------------------------------------------------------------|
D|---------------------------------------------------------------|
A|------------------------------------13----13\-10-10-10-10------|
E|-3----------8----------10------10/-----------------------------|REPEAT UNTIL END:


| / slide up
| \ slide down
| h hammer-on
| p pull-off

Almost there ...

Sign in to get your own page with links to favourite songs and more. You are just one click away...

Login with Facebook Login with Google