Log in

One click and you are in

Login with Facebook Login with Google

Why sign up and log in

Guitar Tabs Explorer
Jahmal Tgk bass tabs for свинцовый зонт

свинцовый зонт bass tab by Jahmal Tgk

Jahmal Tgk bass tabs for свинцовый зонт

Bass tabs

Key: F#m


Intro:

G|--------------------------------|
D|--------------------------------|
A|--------------------------------|
E|--------------------------------|

Verse 1:

G|--------------------------------|
D|--------------------------------|
A|--------------------------------|
E|2-----2--2------5-------7-------| x2


Verse 2:

G|--------------------------------|
D|--------------------------------|
A|--------------------------------|
E|2---------------5-------7-------|

G|--------------------------------|
D|--------------------------------|
A|--------------------------------|
E|2-----2--2------5-------7-------|


Chorus:

G|--------------------------------|
D|--------------------------------|
A|--------------------------------|
E|--------------------------------|

G|--------------------------------|
D|--------------------------------|
A|--------------------------------|
E|2-----2--2------5-------7-------| x2


Verse 3:

G|--------------------------------|
D|--------------------------------|
A|--------------------------------|
E|2-----2--2------5-------7-------| x2


Verse 4:

G|--------------------------------|
D|--------------------------------|
A|--------------------------------|
E|--------------------------------|

G|--------------------------------|
D|--------------------------------|
A|--------------------------------|
E|2--------2----------------------|

G|--------------------------------|
D|--------------------------------|
A|--------------------------------|
E|2-----2--2------5---------------|


Chorus:

G|--------------------------------|
D|--------------------------------|
A|--------------------------------|
E|2--------2------5-------7-------|

G|--------------------------------|
D|--------------------------------|
A|--------------------------------|
E|2-----2--2------5-------7-------|


Verse 5:

G|--------------------------------|
D|--------------------------------|
A|--------------------------------|
E|--------------------------------|

G|--------------------------------|
D|--------------------------------|
A|--------------------------------|
E|2-----2--2------5-------7-------| x2


Verse 6:

G|--------------------------------|
D|--------------------------------|
A|--------------------------------|
E|2-----2--2------5-------7-------| x2


Outro:

G|--------------------------------|
D|--------------------------------|
A|--------------------------------|
E|2-----2--2------5-------7-------| x2


Cheers and enjoy!
Roland

Almost there ...

Sign in to get your own page with links to favourite songs and more. You are just one click away...

Login with Facebook Login with Google