Guitar Tabs Explorer
Jaga Jazzist guitar tabs for Prungen

Prungen tab


Be the first to rate

Prungen tab by Jaga Jazzist

Guitar tabs

Print

Tuning: Standard


[VERSE]

BRASS SECTION PART
e|---------------------------------------------------------------|
B|-------------------11-11----11-12-11-12-11---------------------|
G|---8-12-10-8-10-12-------12----------------12------------------|
D|10-------------------------------------------------------------|
A|---------------------------------------------------------------|
E|---------------------------------------------------------------|

e|------------------10-------------------10-11-------------------|
B|---11-12-11-12-13-------11-12-13-12-13-------------------------|
G|12-------------------12----------------------12--10---13-------|
D|---------------------------------------------------------------|
A|---------------------------------------------------------------|
E|---------------------------------------------------------------|

e|---------------------------------------------------------------|
B|---------------------------------------------------------------|
G|------10-12/13-12--------------12-----12------10---------------|
D|12-13-------------12---13--15------8------10-------------------|
A|---------------------------------------------------------------|
E|---------------------------------------------------------------|


e|---------------------------------------------------------------|
B|-------------------11-11----11-12-11-12-11---------------------|
G|---8-12-10-8-10-12-------12----------------12------------------|
D|10-------------------------------------------------------------|
A|---------------------------------------------------------------|
E|---------------------------------------------------------------|

e|------------------10----11-10----------------------------------|
B|---11-12-11-12-13-------------12----/11------------------------|
G|12-------------------12----------12-----13-12-10---------------|
D|---------------------------------------------------------------|
A|---------------------------------------------------------------|
E|---------------------------------------------------------------|

e|---------------------------------------------------------------|
B|---------------------------------------------------------------|
G|12/13-12----------12-10---------12-10---8-7--------------------|
D|---------13-10----------13-10----------------8-----------------|
A|---------------------------------------------------------------|
E|---------------------------------------------------------------|


2ND BRASS SECTION PART
e|---------------------------------------------------------------|
B|-------------------11-11----11-12-11-12-11---------------------|
G|---8-12-10-8-10-12-------12----------------12------------------|
D|10-------------------------------------------------------------|
A|---------------------------------------------------------------|
E|---------------------------------------------------------------|

e|------------------10----11-10----------------------------------|
B|---11-12-11-12-13-------------12----/11------------------------|
G|12-------------------12----------12-----13-12-10---------------|
D|---------------------------------------------------------------|
A|---------------------------------------------------------------|
E|---------------------------------------------------------------|

e|---------------------------------------------------------------|
B|---------------------------------------------------------------|
G|12/13-12----------12-10---------12-10---8-7--------------------|
D|---------13-10----------13-10----------------8-----------------|
A|---------------------------------------------------------------|
E|---------------------------------------------------------------|


[BRIDGE]

GUITAR PART
e|--------------------------------------------------|
B|--------------------------------7-----------------|
G|------------------6-4-----8-6-8-------------------|
D|------4--6---66-------66--------------------------|
A|---6------------4---------------------------------|
E|4-------------------------------------------------|


[BRIDGE]

SYNTH/STRINGS
e|------------6--------------------------------------------------|
B|9--9--9-9-7---7-6--7-6-7-6-----7-7-6-7-6-----------------------|
G|---------------------------6-8-----------6-8-------------------|
D|---------------------------------------------------------------|
A|---------------------------------------------------------------|
E|---------------------------------------------------------------|


**********************************
| /  slide up
| \  slide down
| h  hammer-on
| p  pull-off
| ~  vibrato
| +  harmonic
| x  Mute note

Comment this song and these guitar tabs

Do you have corrections, comments on the guitar tabs, thoughts about the song or a message to the author? Write them below.