Guitar Tabs Explorer
Jaga Jazzist guitar tabs for Day

Day tab


Be the first to rate

Day tab by Jaga Jazzist

Guitar tabs

Print
MAIN GUITAR PART:
 0:19
e|---------------------------------------------------------------------------|
B|-----0-----------0-----------0--------0-----------0-----------0------------|
G|---6---6-------6---6-------6--------8---8-------8---8-------8--------------|
D|-4-------4---4-------4---4--------6-------6---6-------6---6----------------|
A|6----------6-----------6---------7----------7-----------7------------------|
E|---------------------------------------------------------------------------|

(TRANSITION TO "CHORUS")
1:35
e|---------------------------------------------------------------------------|
B|-----0-----------0-----------0--------0----------------0-------------------|
G|---6---6-------6---6-------6--------8---8------------4---4-----------------|
D|-4-------4---4-------4---4--------6-------6---6----2-------2---2-----------|
A|6----------6-----------6---------7----------7-----4----------4-------------|
E|---------------------------------------------------------------------------|


VERSE/ LEAD PIANO:
0:38
e|------------------------------------------------------------------------------------------------|
B|------------------------------------------------------------------------------------------------|
G|3--6--------------------6--8--4--6--3--4-----3--6------------------4--3----------4-3------------|
D|------6--8--4--6--3-----------------------6--------6--8--4--6--3--------6-4--2-4-----6-4--------|
A|------------------------------------------------------------------------------------------------|
E|------------------------------------------------------------------------------------------------|



BREAK/ LEAD TRUMPET:
0:57
e|6----------------------7/9-7-6-----------------6--------|
B|-7-----------------------------7-----------7-9----------|
G|--6-4-3-------3-4-6--------------8-------8--------------|
D|--------6-4-6----------------------9-8-9----------------|
A|--------------------------------------------------------|
E|--------------------------------------------------------|

(SOLO)
1:15
e|7-6-7-9~~--7-6-7-11~---12-11-----------------------------------------------|
B|-----------------------------12-------------7------------------------------|
G|--------------------------------11-9-8--6-8---9-8--------------------------|
D|---------------------------------------------------------------------------|
A|---------------------------------------------------------------------------|
E|---------------------------------------------------------------------------|


From here on it's just continued variations of the same themes, really not worth tabbing especially
considering that if you're trying to learn this you're probably a better guitarist than me lol


************************************
| ~   Vibrato

Comment this song and these guitar tabs

Do you have corrections, comments on the guitar tabs, thoughts about the song or a message to the author? Write them below.