Log in

One click and you are in

Login with Facebook Login with Google

Why sign up and log in

Guitar Tabs Explorer
Michael Jackson bass tabs for Love never felt so good

Love Never Felt So Good bass tab by Michael Jackson

Michael Jackson bass tabs for Love never felt so good

Bass tabs

Intro
G---------------------------
D---5-----------------------
A-----5--6----slide---------
E---------------------------
Verse
G-----------------------------------------------
D-----------------------------------------------
A----------1----3-----3h5-----------------------
E--3----3----------------------1------3-4-5-----


G------------------------------------------------------
D----------------------------------------3-------------
A--3-5-----5-3-----------3h5----3---3h5----5-----------
E---------------6-5-3----------------------------------


G-----------------------------------------------------
D-----------------------------------------------------
A------------3h5h3---3h5------------------3-3h5-------
E--3----3--------------------1------3-4-5-------------


G------------------------------------------------------
D------------------------------------------------------
A--5-3---------------3h5h3-----------------3-3h5-------
E------6-5-3----3-------------3h5---5-5----------------


G-------------------------------------------------------
D-------------------------------------------------------
A--5-3-----------------------------------------3-3------
E--------6-5---6-6-6-6---5-5-5-5---3-3-3-3--------------



Chorus
-------------------------------------------------------
----------------------3--------------------------------
-----------3h5h3--3-5---5--------------3---5------5----
-3---3-3--------------------1--3-5---5---5----------5--


Chorus
G--------------------------------------------------------------------------
D------5s8-7s(10)----------------------------------------------------------
A--------------------------------------------------------------------------
E--3--------------1--------------------------------------------------------

Almost there ...

Sign in to get your own page with links to favourite songs and more. You are just one click away...

Login with Facebook Login with Google