Search tabs and chords

Search for song, artist or band

Log in

One click and you are in

Login with Facebook Login with Google

Why sign up and log in

Guitar Tabs Explorer
Michael Jackson guitar tabs for Give into me

Guitar tabs with lyrics

[Intro:]
           Em		        A chord diagramC majorC        A chord diagramD MajorD
E||-----------------------|------------------||
B||-----------------------|------------------||
G||-----------------------|--------------0---||
D||------2--4--5--4--2----|----5--4----4--5--||
A||---2-----------------2-|-3----------------||
E||-0---------------------|------------------||

[Chorus1:]

    A chord diagramB5B5     A chord diagramA5A5    A chord diagramB5B5    A chord diagramD5D5
E||-----|-----|-----|-----||
B||-----|-----|-----|-----||
G||--4--|--2--|--4--|--7--||
D||--4--|--2--|--4--|--7--||
A||--2--|--0--|--2--|--5--||
E||-----|-----|-----|-----||

[Chorus2:]
      A chord diagramE5E5        A chord diagramC5C5    D(5)
E||------0---|------3-2--||
B||----------|-----------||
G||----------|----5------||
D||--2-------|----5------||
A||--2-------|----3------||
E||--0-------|-----------||


[Bridge:]

     A chord diagramA5A5    A chord diagramG5G5    A chord diagramE5E5    A chord diagramE5E5    A chord diagramA5A5    A chord diagramG5G5  A chord diagramF7#11F7#11  (A chord diagramBB)
E||-----|-----|-----|-----|-----|-----|--0--|--0--||
B||-----|-----|-----|-----|-----|-----|--0--|--0--||
G||--2--|-----|-----|-----|--2--|-----|--2--|--4--||
D||--2--|--5--|--2--|--2--|--2--|--5--|--3--|--4--||
A||--0--|--5--|--2--|--2--|--0--|--5--|--3--|--2--||
E||-----|--3--|--0--|--0--|-----|--3--|--1--|-----||


| INTRO   |  INTRO  |  INTRO  |  INTRO  |  INTRO  | CHORUS1 |
| CHORUS2 | CHORUS2 | CHORUS2 | CHORUS2 |  INTRO  |  INTRO  |
|  INTRO  | CHORUS1 | CHORUS2 | CHORUS2 | CHORUS2 | CHORUS2 |
| BRIDGE  |  INTRO  |  INTRO  |  INTRO  | CHORUS1 | CHORUS2 |
| CHORUS2 | CHORUS2 | CHORUS2 | CHORUS2 | CHORUS2 | CHORUS2 |
| CHORUS2 |  SOLO   |

Almost there ...

Sign in to get your own page with links to favourite songs and more. You are just one click away...

Login with Facebook Login with Google