Log in

One click and you are in

Login with Facebook Login with Google

Why sign up and log in

Guitar Tabs Explorer
Jackopierce tabs for Three of us in a boat

Guitar tabs with lyrics

Three of Us in a Boat lyrics and music by Cary Pierce performed by
Jackopierce on the album "Jackopierce"

                            Three Of us in a Boat

guitar part 1

e|---3---3--3--3----2--3--2--3--3-----|
A chord diagramBB|---3---3--3--3----3--3--3--3--3-----|
A chord diagramG+G|---0---0--0--0----2--2--2--2--2-----|
A chord diagramD MajorD|---0---2--2--2----0--0--0--0--0-----|
A chord diagramA augmentedA|---2---3--3--3----------------------|
A chord diagramE MajorE|-3----------------------------------|
Solo:
 Play notes as written

--12--12h-15p-12-------------------------------12--12h-15p-12---------12-----
------------------15--12---------------------------------------15-12-----15--
--------------------------14^^14--12-----------------------------------------
--------------------------------------14-------------------------------------
-----------------------------------------------------------------------------
-----------------------------------------------------------------------------

--12--12h-15p-12-------------------------------------------------------------
------------------15--12-----------------------------------------------------
--------------------------14^^14--12--------------12---14--12----------------
--------------------------------------14--12h-14----------------14---12\-----
-----------------------------------------------------------------------------
-----------------------------------------------------------------------------

-----------------------------------------------------------------------------
----------------------------------------8p-5-----5---------------------------
-------------------------------4--5--7--------7-----7--5--4------------------
----------------------4--5--7--------------------------------7--5--4---------
-------------3--5--7---------------------------------------------------7--5--
---3--5--7-------------------------------------------------------------------

--15-15-----8-8-8--10-10-10--8-8-8----15-15---8-8-8--10-10-10\----------
--15-15-----8-8-8--10-10-10--8-8-8----15-15---8-8-8--10-10-10\----------
------------------------------------------------------------------------
------------------------------------------------------------------------
------------------------------------------------------------------------
------------------------------------------------------------------------

Verses:(guitar part 1 unless otherwise noted)

I loved you and you ...

Looks like I'm getting ....

Three of us in a ...

She said, "I hope you have some ...

I've got my suit on, ...

A chord diagramG+G               A chord diagramD MajorD
I've found new days ...

A chord diagramG+G               A chord diagramD MajorD
I've found new days ....

Looks like we're in for nasty ...

Outro:
-15-15--8-8-8--10-10-10--8-8-8----15-15--8-8-8--10-10-10--------------------
-15-15--8-8-8--10-10-10--8-8-8----15-15--8-8-8--10-10-10--------------------
----------------------------------------------------------------------------
----------------------------------------------------------------------------
----------------------------------------------------------------------------
----------------------------------------------------------------------------

--15-15-15-17-17--15-15-15-17-17--15-15-15-17-17--15-15-15-17-17--15-15-15--
--15-15-15-17-17--15-15-15-17-17--15-15-15-17-17--15-15-15-17-17--15-15-15--
----------------------------------------------------------------------------
----------------------------------------------------------------------------
----------------------------------------------------------------------------
----------------------------------------------------------------------------

-17-17-17-17-17\--------
-17-17-17-17-17\--------
------------------------
------------------------
------------------------
------------------------

----------------------------------------------------------------------------
For mailing list information or to order discs, tapes, and t-shirts:

Jackopierce c/o Rhythmic Records
5612 Yale Blvd #208
Dallas, TX 75206
1(214)696-0766

----------------------------------------------------------------------------

Any additions, correction, or comments are welcome.

Craig Scrimpshire
<cks@tamu.edu

Other versions of Three Of Us In A Boat

Three Of Us in A BoatChords

Almost there ...

Sign in to get your own page with links to favourite songs and more. You are just one click away...

Login with Facebook Login with Google