Log in

One click and you are in

Login with Facebook Login with Google

Why sign up and log in

Guitar Tabs Explorer
Jackopierce tabs for Please come to boston

Guitar tabs with lyrics

Please come to Boston
written by D.A.Loggins
performed by Jackopierce on the album "Jackopierce"

                            Please Come To Boston
Intro:
 Capo 3rd fret--play chords relative to capo

 ---3---2----0---0----0---2----2---2---2---2---
 ---3---3----3---3----3---3----3---3---3---3---
 ---2---2----2---2----2---2----2---2---2---2---
 ---0---0----0---0----0---0----0---0---0---0---
 ----------------------------------------------
 ----------------------------------------------


Solo:
 Play notes as written

-----------------------------------------------------------------------------
--11--10--------------------------------------------11--10-------------------
----------10------------------------------------------------10--10--12-------
--------------10--12--10--12--10--12--10--12---------------------------------
-----------------------------------------------------------------------------
-----------------------------------------------------------------------------

-----------------------------------------------------------------------------
-----------------------------------------------------------------------^^^^--
-----------------------------------------------------------------10--12----12
--10--12--10--12--10--12--10--12-------------------------10--12--------------
----------------------------------------------8--10--12----------------------
--------------------------------------10--12---------------------------------

-----------------------------------------------------------------------------
----------13--15--13----10--10--------10----------13--13--15--13--10---------
--12--14----------------------------------12--14-----------------------------
-----------------------------------------------------------------------------
-----------------------------------------------------------------------------
-----------------------------------------------------------------------------

--------------------------------------~~~~-----------------------------------
--10----------13--13--15--13--10----12-------11--10--------------------------
------12--14-----------------------------------------10--12--10--------------
-----------------------------------------------------------------------------
-----------------------------------------------------------------------------
-----------------------------------------------------------------------------

----------------------------------
--11--10-------------11-----------
----------10--12---------10-------
----------------------------------
----------------------------------
----------------------------------

Verses:

A chord diagramD MajorD                               A chord diagramG+G
Please come to Boston for ...
     A chord diagramD MajorD                                              A chord diagramG+G
I'm staying here with some ...
A chord diagramA augmentedA                                  A chord diagramD MajorD      A chord diagramDsus4Dsus4 A chord diagramD MajorD A chord diagramDsus2Dsus2 A chord diagramD MajorD
You can sell your ...
     A chord diagramB minorBm               A chord diagramA augmentedA      A chord diagramG+G
By a cafe were I hope to be ....


Bridge:

A chord diagramD MajorD
Please come ...
          A chord diagramA augmentedA
She ...
                      A chord diagramD MajorD A chord diagramDsus4Dsus4 A chord diagramD MajorD A chord diagramDsus2Dsus2 A chord diagramD MajorD
Baby ....


Chorus:

A chord diagramD MajorD                                A chord diagramA augmentedA      A chord diagramD MajorD
She said "Ramblin' boy, ...
A chord diagramD MajorD                 A chord diagramA augmentedA     A chord diagramD MajorD
Boston ain't ...
A chord diagramD MajorD                                               A chord diagramG+G
There ain't no gold and ...
           A chord diagramA augmentedA                 A chord diagramG+G            A chord diagramD MajorD A chord diagramDsus4Dsus4 A chord diagramD MajorD A chord diagramDsus2Dsus2 A chord diagramD MajorD
I'm the number one fan of a ....


-----------------------------------------------------------------------------
For mailing list information or to order discs, tapes, and t-shirts:

Jackopierce c/o Rhythmic Records
5612 Yale Blvd #208
Dallas, TX 75206
1(214)696-0766

----------------------------------------------------------------------------

Any additions, correction, or comments are welcome.

Craig Scrimpshire
<cks@tamu.edu

Almost there ...

Sign in to get your own page with links to favourite songs and more. You are just one click away...

Login with Facebook Login with Google