Log in

One click and you are in

Login with Facebook Login with Google

Why sign up and log in

Guitar Tabs Explorer
Jackie Hayes bass tabs for Flower

Bass tabs with lyrics

Tuning: Standard (E A D G)


Intro:

G|---------------------------------------------------------------------------|
D|---------------------------------------------------------------------------|
A|---------------------------------------------------------------------------|
E|---------------------------------------------------------------------------|

G|---------------------------------------------------------------------------|
D|---------------------------------------------------------------------------|
A|---------------------------------------------------------------------------|
E|---------------------------------------------------------------------------|
 Don't go outside, cause I've been here for hours.

G|-------------4--1-------6---------11------4------1-------------------------|
D|---------------------------------------------------------------------------|
A|---------------------------------------------------------------------------|
E|---------------------------------------------------------------------------|
 You see I left you flowers, all sorts of types. I dunno what you like.
G|-----6-----11--------6--------------------6-----------------------4---1----|
D|---------------------------------------------------------------------------|
A|---------------------------------------------------------------------------|
E|---------------------------------------------------------------------------|


 Into the trash they get thrown. Well I guess that I should go.

G|----------6-----------------------------6------------------4---1-----------|
D|---------------------------------------------------------------------------|
A|---------------------------------------------------------------------------|
E|---------------------------------------------------------------------------|

               I tried to hide the fact that it was me.

G|11---9-8-11---9-8-11---9-8-0---1----3---4--1----6--------11------4---1-----|
D|---------------------------------------------------------------------------|
A|---------------------------------------------------------------------------|
E|---------------------------------------------------------------------------|
 You know I miss you dearly.
G|------6----11--------------------------------------------------------------|
D|---------------------------------------------------------------------------|
A|---------------------------------------------------------------------------|
E|---------------------------------------------------------------------------|


 I have no self control,

G|6--------------------------------------------------------------------------|
D|---------------------------------------------------------------------------|
A|---------------------------------------------------------------------------|
E|---------------------------------------------------------------------------|
 I can't stop looking at the photos of us in my camera roll.
G|---1-----6---------------------------------------4----------1--------------|
D|---------------------------------------------------------------------------|
A|---------------------------------------------------------------------------|
E|---------------------------------------------------------------------------|


   I dunno what to do, I'm just so ashamed of what this grew into.

G|6---------------------------1---6-------------------------4---------1------|
D|---------------------------------------------------------------------------|
A|---------------------------------------------------------------------------|
E|---------------------------------------------------------------------------|

G|11---9-8-11---9-8----------------------------------------------------------|
D|---------------------------------------------------------------------------|
A|---------------------------------------------------------------------------|
E|---------------------------------------------------------------------------|


 How many times can we see this through? Don't you know I'm hurting for you?

G|----------6--------8-------------13----------------6----------8---------13-|
D|---------------------------------------------------------------------------|
A|---------------------------------------------------------------------------|
E|---------------------------------------------------------------------------|
 How many times can we see this through? Don't you know I'm hurting for you?
G|----------6--------8-------------13----------------6----------8---------13-|
D|---------------------------------------------------------------------------|
A|---------------------------------------------------------------------------|
E|---------------------------------------------------------------------------|


   You see, I left you flowers.

G|6----1---6----------------4-------1----6--6-1---4---1----------------------|
D|---------------------------------------------------------------------------|
A|---------------------------------------------------------------------------|
E|---------------------------------------------------------------------------|


   I guess that I should go...
G|11---9----------8--------11-------------------------------------------------|
D|---------------------------------------------------------------------------|
A|---------------------------------------------------------------------------|
E|---------------------------------------------------------------------------|
   I guess that I should go.
G|-----9----------8----------------------------------------------------------|
D|---------------------------------------------------------------------------|
A|---------------------------------------------------------------------------|
E|---------------------------------------------------------------------------|

Almost there ...

Sign in to get your own page with links to favourite songs and more. You are just one click away...

Login with Facebook Login with Google