Log in

One click and you are in

Login with Facebook Login with Google

Why sign up and log in

Guitar Tabs Explorer
Jackie Chan bass tabs for I can do it

Bass tabs

Intro:
G|----------------|----------------|----------------|----------------|
D|----------------|----------------|----------------|----------------|
A|-3-3-3-3-3-3-3-3|-3-3-3-3-3-3-3-3|-3-3-3-3-3-3-3-3|-3-3-3-3-3-2-3-4|
E|----------------|----------------|----------------|----------------|

G|----------------|----------------|----------------|----------------|
D|----------------|----------------|----------------|----------------|
A|-5-5-5-5-5-5-5-5|-5-5-5-5-5-5-5-5|-5-5-5-5-5-5-5-5|-5-5-5-5-5-5-5-5|
E|----------------|----------------|----------------|----------------|

G|----------------|----------------|----------------|-------------|
D|----------------|-3-3-3-3-3-3-3-3|-5-5-5-5-5-5-5-5|-5----3/5--3\|
A|-6-6-6-6-6-6-6-6|----------------|----------------|-------------|
E|----------------|----------------|----------------|-------------|
Verse:
G|----------------|----------------|----------------|--------------|
D|----------------|----------------|----------------|--------------|
A|-1-1-1-1-1-1-1-1|-1-1-1-1-1-1-1-1|-3-3-3-3-3-3-3-3|-3---3-/10-10\|
E|----------------|----------------|----------------|--------------|

G|----------------|----------------|----------------|----------------|
D|----------------|----------------|----------------|----------------|
A|-1-1-1-1-1-1-1-1|-1-1-1-1-1-1-1-1|-0-0-0-0-0-0-0-5|-5-5-5-5-5-5-3-3|
E|----------------|----------------|----------------|----------------|

G|----------------|----------------|----------------|----------------|
D|----------------|----------------|----------------|----------------|
A|-1-1-1-1-1-1-1-1|-1-1-1-1-1-1-3-1|-0-0-0-0-0-0-0-5|-5-5-5-5-5-5-3-3|
E|----------------|----------------|----------------|----------------|

G|----------------|----------------|----------------|--------------|
D|----------------|----------------|-3-3-3-3-3-3-3-3|--------------|
A|-1-1-1-1-1-1-1-1|-1-1-1-1-1-1-1-1|----------------|--3-3-3--3-3-3|
E|----------------|----------------|----------------|--------------|

Chorus:
G|----------------|----------------|----------------|--------------|
D|-3-3-3-3-3-3-3-3|-3-3-3-3-3-3-3-3|----------------|--------------|
A|----------------|----------------|-1-1-1-1-1-1-1-1|-1---1-/10-10\|
E|----------------|----------------|----------------|--------------|

G|----------------|----------------|----------------|----------------|
D|----------------|----------------|----------------|----------------|
A|----------------|----------------|-3-3-3-3-3-3-3-3|-3-3-3-3-3-3-3-3|
E|-3-3-3-3-3-3-3-3|-3-3-3-3-3-3-3-3|----------------|----------------|

G|----------------|----------------|----------------|--------------|
D|-3-3-3-3-3-3-3-3|-3-3-3-3-3-3-3-3|----------------|--------------|
A|----------------|----------------|-1-1-1-1-1-1-1-1|-1---1-/10-10\|
E|----------------|----------------|----------------|--------------|

G|----------------|----------------|----------------|----------------|
D|----------------|----------------|----------------|----------------|
A|----------------|----------------|-3-3-3-3-3-3-3-3|-3-3-3-3-3-3-3-3|
E|-3-3-3-3-3-3-3-3|-3-3-3-3-3-3-3-3|----------------|----------------|


Verse:
G|----------------|----------------|----------------|--------------|
D|----------------|----------------|----------------|--------------|
A|-1-1-1-1-1-1-1-1|-1-1-1-1-1-1-1-1|-3-3-3-3-3-3-3-3|-3---3-/10-10\|
E|----------------|----------------|----------------|--------------|

G|----------------|----------------|----------------|----------------|
D|----------------|----------------|----------------|----------------|
A|-1-1-1-1-1-1-1-1|-1-1-1-1-1-1-1-1|-0-0-0-0-0-0-0-5|-5-5-5-5-5-5-3-3|
E|----------------|----------------|----------------|----------------|

G|----------------|----------------|----------------|----------------|
D|----------------|----------------|----------------|----------------|
A|-1-1-1-1-1-1-1-1|-1-1-1-1-1-1-3-1|-0-0-0-0-0-0-0-5|-5-5-5-5-5-5-3-3|
E|----------------|----------------|----------------|----------------|

G|----------------|----------------|----------------|--------------|
D|----------------|----------------|-3-3-3-3-3-3-3-3|--------------|
A|-1-1-1-1-1-1-1-1|-1-1-1-1-1-1-1-1|----------------|--3-3-3--3-3-3|
E|----------------|----------------|----------------|--------------|


Chorus:
G|----------------|----------------|----------------|--------------|
D|-3-3-3-3-3-3-3-3|-3-3-3-3-3-3-3-3|----------------|--------------|
A|----------------|----------------|-1-1-1-1-1-1-1-1|-1---1-/10-10\|
E|----------------|----------------|----------------|--------------|

G|----------------|----------------|----------------|----------------|
D|----------------|----------------|----------------|----------------|
A|----------------|----------------|-3-3-3-3-3-3-3-3|-3-3-3-3-3-3-3-3|
E|-3-3-3-3-3-3-3-3|-3-3-3-3-3-3-3-3|----------------|----------------|

G|----------------|----------------|----------------|--------------|
D|-3-3-3-3-3-3-3-3|-3-3-3-3-3-3-3-3|----------------|--------------|
A|----------------|----------------|-1-1-1-1-1-1-1-1|-1---1-/10-10\|
E|----------------|----------------|----------------|--------------|

G|----------------|----------------|----------------|----------------|
D|----------------|----------------|----------------|----------------|
A|----------------|----------------|-3-3-3-3-3-3-3-3|-3-3-3-3-3-3-3-3|
E|-3-3-3-3-3-3-3-3|-3-3-3-3-3-3-3-3|----------------|----------------|


Instrumental:
G|----------------|----------------|----------------|----------------|
D|----------------|----------------|----------------|----------------|
A|-5-5-5-5-5-5-5-5|-4-4-4-4-4-4-4-4|-3-3-3-3-3-3-3-3|-1-1-1-1-1-1-1-1|
E|----------------|----------------|----------------|----------------|

G|----------------|----------------|-------------------|------------------------|
D|----------------|----------------|-------------------|----------4/6----4/6--4-|
A|-0-0-0-0-0-0-0-0|----------------|-----------9-------|------------------------|
E|----------------|-3-3-3-3-3-3-3-3|-2-------/---------|-4----------------------|


Verse:
G|----------------|----------------|----------------|--------------|
D|----------------|----------------|----------------|--------------|
A|-2-2-2-2-2-2-2-2|-2-2-2-2-2-2-2-2|-4-4-4-4-4-4-4-4|-4---4-/11-11\|
E|----------------|----------------|----------------|--------------|

G|----------------|----------------|----------------|----------------|
D|----------------|----------------|---------------1|-1-1-1-1-1-1----|
A|-2-2-2-2-2-2-2-2|-2-2-2-2-2-2-2-2|-1-1-1-1-1-1-1--|-------------4-4|
E|----------------|----------------|----------------|----------------|

G|----------------|----------------|----------------|----------------|
D|----------------|----------------|---------------1|-1-1-1-1-1-1----|
A|-2-2-2-2-2-2-2-2|-2-2-2-2-2-2-4-2|-1-1-1-1-1-1-1--|-------------4-4|
E|----------------|----------------|----------------|----------------|


Outro:
G|----------------|----------------|----------------|----------------|
D|----------------|----------------|----------------|----------------|
A|-2-2-2-2-2-2-2-2|-2-2-2-2-2-2-2-2|-2-2-2-2-2-2-2-2|-2-2-2-2-2-2-2-2|
E|----------------|----------------|----------------|----------------|

G|----------------|----------------|----------------|----|
D|----------------|----------------|----------------|----|
A|-2-2-2-2-2-2-2-2|-2-2-2-2-2-2-2-2|----------------|----|
E|----------------|----------------|---3-2--3-2-----|-3-2|


***********************************

| / Slide up
| \ Slide down

Almost there ...

Sign in to get your own page with links to favourite songs and more. You are just one click away...

Login with Facebook Login with Google