Log in

One click and you are in

Login with Facebook Login with Google

Why sign up and log in

Guitar Tabs Explorer
Jackie Chan bass tabs for Hello happy song

Bass tabs

Intro:
G|-----------------|-----------------|-----------------|-----------------|
D|-----------------|-----------------|-----------------|-----------------|
A|-5---------------|-----------------|-----------------|-----------------|
E|-----------------|-3---------------|-6---------------|-5---------------|
Verse 1:
(00:17 ~ 00:31) - No Bass Guitar

(00:32 ~)
G|---------|
D|-7-------|
A|---------|
E|---------|

G|------------------|------------------|------------------|--------------------7---9-/11---|
D|------------------|------------------|-5--------4-------|--------------------------------|
A|-5----------------|-7----------------|------------------|-7---------5--------------------|
E|----------3-------|----------5-------|------------------|------5-------------------------|


Chorus:
G|-----------|-----------|-----------|-----------|
D|-----------|-----------|-----------|-----------|
A|-----------|-----------|-----------|-5---5-5---|
E|-3---3-3---|-3---3-3---|-5---5-5---|-----------|

G|-----------|-----------|------------|-----------|
D|-----------|-----------|------------|-----------|
A|-----------|-5---5-5---|------------|-----------|
E|-3---3-3---|-----------|-5---5-5---5|-5---5-5---|

G|------------|-----------|-----------|-----------|
D|------------|-----------|-----------|-----------|
A|-----------5|-----------|-----------|-5---5-5---|
E|-3---3-3----|-3---3-3---|-5---5-5---|-----------|

G|-----------|-----------|-----------|---------|
D|-----------|-----------|-----------|---------|
A|-----------|-----------|-5---5-5---|-5-------|
E|-3---3-3---|-5---5-5---|-----------|---------|

Interlude:
G|-----------------|----------------------|-3----------------|-2---------------|
D|-----------------|-------------------0-3|--------------3---|-----------------|
A|-5---------------|---------------1/2----|------------------|-----------------|
E|-----------------|-3--------------------|------------------|-----------------|

Verse 2:
G|------------------|------------------|------------------|------------------|
D|------------------|------------------|-5--------4-------|----------7-------|
A|-5----------------|------------------|------------------|-7----------------|
E|----------3-------|-0--------5-------|------------------|------------------|

G|------------------|--------------------|------------------|-------------------------11--12-\11-11-|
D|------------------|------9-------------|-5--------4-------|---------------4-7---------------------|
A|-5----------------|-7------7-----------|------------------|-7---------5-------5-------------------|
E|----------3-------|------------5-------|------------------|------5--------------------------------|


Chorus:
G|-----------|-----------|-----------|------------|
D|-----------|-----------|-----------|------------|
A|-----------|-----------|-----------|-5---5-5\---|
E|-3---3-3---|-3---3-3---|-5---5-5---|----------2-|

G|-----------|-----------|------------|-----------|
D|-----------|-----------|------------|-----------|
A|-----------|-5---5-5---|------------|-----------|
E|-3---3-3---|-----------|-5---5-5---5|-5---5-5---|

G|-------------|------------|--------------|-----------|
D|-----------5-|------------|-----------7--|-----------|
A|---------5---|-----------5|---------7---7|-5---5-5---|
E|-3---3-3-----|-3---3-3----|-5---5-5------|-----------|

G|------------|-----------|---------------7---9-/11-11-11|
D|------------|-----------|-------------7----------------|
A|------------|-----------|-5---5-5---9------------------|
E|-3---3-3---3|-5---5-5---|------------------------------|

G|-12-----------------|-----------|-----------|
D|--------------------|-----------|-----------|
A|-----------------10\|-----------|-5---5-5---|
E|--------------------|-5---5-5---|-----------|

G|--------------|-----------|---------------------------|
D|--------------|-----------|----------4---5-6-7--------|
A|---------2-3-4|-5---5-5---|------------7--------------|
E|-3---3-3------|-----------|-5---5-5------------7-8--9\|

G|------------|------------|-----------|-----------|
D|------------|------------|-----------|-----------|
A|------------|------------|-----------|-5---5-5---|
E|-3---3-3---3|-3---3-3---3|-5---5-5---|-----------|

G|-------------|-------------|----------------------|
D|---------5---|-7---7-------|----------12----------|
A|------------5|-------7-9-7-|-5---9-12----------11\|
E|-3---3-3-----|-------------|----------------------|


Outro:
G|----------11h12p11h12p11h12p11\|-----------------|-----------------------|------------------|---|
D|-------------------------------|-----------------|-----------------------|------------------|---|
A|-------------------------------|-----------------|-------------(8)-------|------------------|-5-|
E|-------------------------------|----------------5|-6---------------(6)---|-5--------5-------|---|


********************************

| / Slide up
| \ Slide down
| h Hammer-on
| p Pull-off
| (n) Ghost note

Almost there ...

Sign in to get your own page with links to favourite songs and more. You are just one click away...

Login with Facebook Login with Google