Log in

One click and you are in

Login with Facebook Login with Google

Why sign up and log in

Guitar Tabs Explorer
Jackie Chan bass tabs for Dont stop the romance

Don't Stop The Romance bass tab by Jackie Chan

Jackie Chan bass tabs for Dont stop the romance

Bass tabs

Intro:
G|----------------|----------------|----------------|----------------|
D|----------------|----------------|----------------|----------------|
A|----------------|-----------2-3--|----------------|-----------3---5|
E|-5-5-5-5-5-5-5-5|-5-5-5-5-5-----0|-1-1-1-1-1-1-1-1|-1-1-1-1-1---3--|

G|----------------|----------------|----------------|----------------|
D|----------------|----------------|----------------|----------------|
A|----------------|-----------2-3--|----------------|----------------|
E|-5-5-5-5-5-5-5-5|-5-5-5-5-5-----0|-1-1-1-1-1-1-1-1|-1-1-1-1-1-1-3-3|

G|----------------------|
D|-2---2---2---5-3-2----|
A|----------------------|
E|----------------------|
Verse 1:
G|--------------------------|--------------------------|
D|--------------------------|-------------------------3|
A|---------------------3---5|-----------------------3--|
E|-5---5-5-3--1----1-1---3--|-5---5-5-3--1----1-1-1----|

G|------------------------|----------------3----------|
D|------------------------|---------------------------|
A|-5---5-5---5-5---5-5-5-3|-2----2-2-2--1-----1-2-----|
E|------------------------|-----------------------0-0-|

G|--------------------------|--------------------------|
D|--------------------------|-------------------------3|
A|---------------------3---5|-----------------------3--|
E|-5---5-5-3--1----1-1---3--|-5---5-5-3--1----1-1-1----|

G|--------------|--------------|-----------|-----------------|
D|-------------2|-3---3-3-3---3|-2---2-2---|-----------------|
A|-5---5-5-5-5--|-----------3--|---------2-|--------------7--|
E|--------------|--------------|-----------|-0--0-4-0-7-0---0|

Pre-Chorus:
G|--------------------|--------------------|
D|--------------------|--------------------|
A|-5---------5-5------|--------------------|
E|---------5----------|-5-------0-5-5------|

G|----------|-------------|-------------|------------------------------|
D|----------|------------2|-3---3--3---3|------------------------------|
A|-5---5----|-5---5----5--|----------3--|-----------2-----------2------|
E|----------|--------5----|-------------|-0-0-0-0-0----0--0-0-0----4--0|


Chorus:
G|------------------------|------------|------------|
D|------------------------|------------|------------|
A|------------------------|-5---5-5----|-7-7-7-7----|
E|-5---5-5---5-5---5--x-5-|-----------5|------------|

G|--------------------------|-------------------------|----------------------|
D|--------------------------|-------------------------|---------------2------|
A|---------------------3---5|-------------------------|------------------2---|
E|-5---5-5-3--1----1-1---3--|-1---1-1-1--0--0-0-0-0---|-1---1---------------3|

Interlude:
G|----------------|----------------|----------------|----------------|
D|----------------|----------------|----------------|----------------|
A|----------------|-----------2-3--|----------------|-----------3---5|
E|-5-5-5-5-5-5-5-5|-5-5-5-5-5-----0|-1-1-1-1-1-1-1-1|-1-1-1-1-1---3--|

G|----------------|----------------|----------------|----------------|
D|----------------|----------------|----------------|----------------|
A|----------------|-----------2-3--|----------------|----------------|
E|-5-5-5-5-5-5-5-5|-5-5-5-5-5-----0|-1-1-1-1-1-1-1-1|-1-1-1-1-1-1-3-3|

G|----------------------|
D|-2---2---2---5-3-2----|
A|----------------------|
E|----------------------|


Verse 2:
G|--------------------------|--------------------------|
D|--------------------------|-------------------------3|
A|---------------------3---5|-----------------------3--|
E|-5---5-5-3--1----1-1---3--|-5---5-5-3--1----1-1-1----|

G|------------------------|----------4------3------------|
D|------------------------|------------------------------|
A|-5---5-5---5-5-----5-5-3|-2----2-2---2-1----1-1-2---7--|
E|-----------------5------|-------------------------0---0|

G|--------------------------|--------------------------|
D|--------------------------|-------------------------3|
A|---------------------3---5|-----------------------3--|
E|-5---5-5-3--1----1-1---3--|-5---5-5-3--1----1-1-1----|

G|--------------|--------------|------------|-----------------|
D|-------------2|-3---3-3---3-3|-2---2-2---2|-----------------|
A|-5---5-5---5--|---------3----|---------2--|--------------7--|
E|---------5----|--------------|------------|-0--0-4-0-7-0---0|


Pre-Chorus:
G|--------------------|--------------------|
D|--------------------|--------------------|
A|-5---------5-5------|--------------------|
E|---------5----------|-5-------0-5-5------|

G|----------|-------------|-------------|------------------------------|
D|----------|------------2|-3---3--3---3|------------------------------|
A|-5---5----|-5---5----5--|----------3--|-----------2-----------2------|
E|----------|--------5----|-------------|-0-0-0-0-0----0--0-0-0----4--0|


Chorus:
G|------------------------|------------|------------|
D|------------------------|------------|------------|
A|------------------------|-5---5-5---5|-7-7-7-7----|
E|-5---5-5---5-5---5--x-5-|------------|------------|

G|--------------------------|-------------------------|----------------------|
D|--------------------------|-------------------------|---------------2------|
A|---------------------3---5|-------------------------|------------------2---|
E|-5---5-5-3--1----1-1---3--|-1---1-1-1--0--0-0-0-0---|-1---1---------------3|


Instrumental:
G|--------------------------|--------------------------|
D|--------------------------|-------------------------3|
A|---------------------3---5|-----------------------3--|
E|-5---5-5-3--1----1-1---3--|-5---5-5-3--1----1-1-1----|

G|--------------|--------------|------------|-----------------|
D|-------------2|-3---3-3-3---3|-2---2-2---2|-----------------|
A|-5---5-5---5--|-----------3--|---------2--|--------------7--|
E|---------5----|--------------|------------|-0--0-4-0-7-0---0|


Pre-Chorus:
G|--------------------|--------------------|
D|--------------------|--------------------|
A|-5---------5-5------|--------------------|
E|---------5----------|-5-------0-5-5------|

G|----------|-------------|-------------|------------------------------|
D|----------|------------2|-3---3--3---3|------------------------------|
A|-5---5----|-5---5----5--|----------3--|-----------2-----------2------|
E|----------|--------5----|-------------|-0-0-0-0-0----0--0-0-0----4--0|


Chorus:
G|------------------------|------------|------------|
D|------------------------|------------|------------|
A|------------------------|-5---5-5----|-7-7-7-7----|
E|-5---5-5---5-5---5--x-5-|-----------5|------------|

G|--------------------------|-------------------------|----------------------|
D|--------------------------|-------------------------|---------------2------|
A|---------------------3---5|-------------------------|------------------2---|
E|-5---5-5-3--1----1-1---3--|-1---1-1-1--0--0-0-0-0---|-1---1---------------3|


Outro:
G|----------------|----------------|----------------|----------------|
D|----------------|----------------|----------------|----------------|
A|----------------|-----------2-3--|----------------|-----------3---5|
E|-5-5-5-5-5-5-5-5|-5-5-5-5-5-----0|-1-1-1-1-1-1-1-1|-1-1-1-1-1---3--|

G|----------------|----------------|----------------|----------------|
D|----------------|----------------|----------------|----------------|
A|----------------|-----------2-3--|----------------|----------------|
E|-5-5-5-5-5-5-5-5|-5-5-5-5-5-----0|-1-1-1-1-1-1-1-1|-1-1-1-1-1-1-3-3|

G|-------------------------|
D|-------------------------|
A|-------------------------|
E|-0---0---0---3-1-0---3-5-|


*********************************

| x Dead note

Almost there ...

Sign in to get your own page with links to favourite songs and more. You are just one click away...

Login with Facebook Login with Google