Log in

One click and you are in

Login with Facebook Login with Google

Why sign up and log in

Guitar Tabs Explorer
Jack Union chords for I am

Guitar chords

Title: I am
Album:


Intro x4.
--------------------------
--------------------------
--------------------------
---------7----------------
-----7-------------5------
-5---------5---3----------

Pre Verse x4
--------------------------
--------------------------
--------------------------
-7-------7-----5----------
-7---7---------5----5-----
-5---------5---3----------


Verse

------------------------------------------------------
------------------------------------------------------
------------------------------------------------------
-7--7--7--7--7--7--7--7---5--5--5--5--5--5--5--5--5---
-7--7--7--7--7--7--7--7---5--5--5--5--5--5--5--5--5---
-5--5--5--5--5--5--5--5---3--3--3--3--3--3--3--3--3---
Think I'll..     ..park   Stay up..          ..dark


until..

Pre Chorus
------------------------------------------------------
------------------------------------------------------
--------------------------3--3--3--3--3--3--3--3------
-7--7--7--7--7--7--7--7---5--5--5--5--5--5--5--5------
-7--7--7--7--7--7--7--7---5--5--5--5--5--5--5--5------
-5--5--5--5--5--5--5--5-------------------------------
See  the  man   standing  just  over

-----------------------------------------------------
-----------------------------------------------------
-----------------------------5--5--5--5--5--5--5--5--
-5--5--5--5--5--5--5--5--5---7--7--7--7--7--7--7--7--
-5--5--5--5--5--5--5--5--5---7--7--7--7--7--7--7--7--
-3--3--3--3--3--3--3--3--3---------------------------
there                 he     said to me son you've just begun


until..


Chorus
------------------------------------------------------
------------------------------------------------------
--------------------------3--3--x--x--x--x--x--x------
-7--7--x--x--x--x--x--x---5--5--x--x--x--x--x--x------
-7--7--x--x--x--x--x--x---5--5--x--x--x--x--x--x------
-5--5--x--x--x--x--x--x-------------------------------
I am    I am              I am   I am

-----------------------------------------------------
-----------------------------------------------------
-----------------------------5--5--5--x--x--x--x--x--
-5--5--x--x--x--x--x--x--x---7--7--7--x--x--x--x--x--
-5--5--x--x--x--x--x--x--x---7--7--7--x--x--x--x--x--
-3--3--x--x--x--x--x--x--x---------------------------
I am    I am                 I am alive again


Then play...

Pre Verse x4

verse

pre chorus

chorus


Bridge

------------------------------------------------------
------------------------------------------------------
--------------------------3--3--3--3--3--3--3--3------
-7--7--7--7--7--7--7--7---5--5--5--5--5--5--5--5------
-7--7--7--7--7--7--7--7---5--5--5--5--5--5--5--5------
-5--5--5--5--5--5--5--5-------------------------------
Sometimes I               just want to get

------------------------------------------------------
------------------------------------------------------
------------------------------------------------------
-5--5--5--5--5--5--5--5--5---------------------------
-5--5--5--5--5--5--5--5--5---------------------------
-3--3--3--3--3--3--3--3--3---------------------------
  away

and then


Pre chorus

Chorus

end on
--
--
-5-
-5-
-3-
---

Almost there ...

Sign in to get your own page with links to favourite songs and more. You are just one click away...

Login with Facebook Login with Google