Log in

One click and you are in

Login with Facebook Login with Google

Why sign up and log in

Guitar Tabs Explorer
Jack Stauber bass tabs for Oh klahoma

Bass tabs with lyrics

Tuning: Standard (E A D G)

Difficulty: Novice


Intro:

(0.00)

G|--------------------------------------|
D|--------------------------------------|
A|--------------------------------------|
E|-0---5---7\3------0---5---7\3---------|
(0.19)

G|--------------------------------------|
D|--------------------------------------|
A|--------------------------------------|
E|-0--0-0---5--5-5-7\3--3-3---3---3-3---|


G|--------------------------------------|
D|--------------------------------------|
A|--------------------------------------|
E|-0--0-0---5--5-5-7\3--3-3---3---------|


Verse 1:

Set the phasers to rot

G|--------------------------------------|
D|--------------------------------------|
A|---------0-2---3---3-3-2-0------------|
E|-3---3-3------------------------------|

What has got you distraught   It's negative

G|--------------------------------------|
D|--------------------------------------|
A|---------0-2---3---3-3-2-0------------|
E|-3---3-3------------------------------|


attention at best  But call it nothing (maybe a something, a little bit, little bit)

G|--------------------------------------|
D|--------------------------------------|
A|--------------------------------------|
E|-0---0-0---5--5-5--7\3--3-3---3---3-3-|


Verse 2:

It's all about ascension I guess Don't put me to rest

G|--------------------------------------|
D|--------------------------------------|
A|--------------------------------------|
E|-0---0-0---5--5-5--7\3--3-3---3---3-3-|


Pre-chorus:

Go on and hand me your clothes
Take a picture or two
I can see you


Chorus:

\u0014Tears falling down at the party

G|--------------------------------------|
D|--------------------------------------|
A|---------0-2---3---3-3-2-0------------|
E|-3---3-3------------------------------|


Saddest little baby in the room

G|--------------------------------------|
D|--------------------------------------|
A|---------0-2---3---3-3-2-0------------|
E|-3---3-3------------------------------|


Fears! Tell me fears! Don't get me started I get a little grey hair for every scare you share

G|--------------------------------------|
D|--------------------------------------|
A|--------------------------------------|
E|-0---0-0---5--5-5--7\3--3-3---3---3-3-|

Post-chorus:

Those aren't meant to bend No, those aren't meant to bend

G|--------------------------------------|
D|--------------------------------------|
A|--------------------------------------|
E|-0---0-0---5--5-5--7\3--3-3---3---3-3-|


Those aren't meant to bend No, those aren't meant to bend

G|--------------------------------------|
D|--------------------------------------|
A|--------------------------------------|
E|-0---0-0---5--5-5--7\3--3-3---3---3-3-|


Bridge:

I hear your eyes
And I see those cries
I hear those eyes
And I see those cries
I can't be the only one who hears you


Chorus:

\u0014Tears falling down at the party

G|--------------------------------------|
D|--------------------------------------|
A|---------0-2---3---3-3-2-0------------|
E|-3---3-3------------------------------|


Saddest little baby in the room

G|--------------------------------------|
D|--------------------------------------|
A|---------0-2---3---3-3-2-0------------|
E|-3---3-3------------------------------|


Fears! Tell me fears! Don't get me started I get a little grey hair for every scare you share

G|--------------------------------------|
D|--------------------------------------|
A|--------------------------------------|
E|-0---0-0---5--5-5--7\3--3-3---3---3-3-|


Post-chorus:

Those aren't meant to bend No, those aren't meant to bend

G|--------------------------------------|
D|--------------------------------------|
A|--------------------------------------|
E|-0---0-0---5--5-5--7\3--3-3---3---3-3-|


Those aren't meant to bend No, those aren't meant to bend

G|--------------------------------------|
D|--------------------------------------|
A|--------------------------------------|
E|-0---0-0---5--5-5--7\3--3-3---3---3-3-|


Chorus:

\u0014Tears falling down at the party
Saddest little baby in the room
Fears! Tell me fears! Don't get me started I might die

************************


| \  Slide down


************************

Almost there ...

Sign in to get your own page with links to favourite songs and more. You are just one click away...

Login with Facebook Login with Google