Log in

One click and you are in

Login with Facebook Login with Google

Why sign up and log in

Guitar Tabs Explorer
Jack Stauber bass tabs for Buttercup

Bass tabs

Tuning: Standard (E A D G)


Intro:

G|----4--------------4-------------|
D|--5-------5--0--7-----4-----4----|
A|---------------------------------|
E|---------------------------------|


Verse:

G|-----------------------4--------------------|
D|-12\5-5--5-5--5-5--5-7----4-4--4-4--4-4--4--| (play this part only once)
A|--------------------------------------------|
E|--------------------------------------------|


G|----------------------4-------------------|
D|--5-5--5-5--5-5--5-7----4-4--4-4--4-4--4--|     X3
A|------------------------------------------|
E|------------------------------------------|


Chorus:

G|----------------------4-------------------|
D|--5-5--5-5--5-5--5-7----4-4--4-4--4-4--4--|     X4
A|------------------------------------------|
E|------------------------------------------|

verse 2:

G|----------------------4-------------------|
D|--5-5--5-5--5-5--5-7----4-4--4-4--4-4--4--|     X4
A|------------------------------------------|
E|------------------------------------------|


bridge:

G|------------7---9---11--9--7---------------7--9--11--14--11--------|
D|--5--7---9-----------------------4---7---9-------------------------|
A|-------------------------------------------------------------------|
E|-------------------------------------------------------------------|

G|------------7---9---11--9--7---------------7--9--11--14------------|
D|--5--7---9-----------------------4---7---9-------------------------|
A|-------------------------------------------------------------------|
E|-------------------------------------------------------------------|

final Chorus:

G|----------------------4-------------------|
D|--5-5--5-5--5-5--5-7----4-4--4-4--4-4--4--|     X8
A|------------------------------------------|
E|------------------------------------------|


outro:

Chorus:
(play this slow, listen to song to understand)
G|-----------------4------------|
D|--5---5----5---7----4---4--4--|
A|------------------------------|
E|------------------------------|

************************************


| \   Slide down


************************************

Almost there ...

Sign in to get your own page with links to favourite songs and more. You are just one click away...

Login with Facebook Login with Google